White Stripes - I Just Dont Know What To Do With Myself Chords & Tabs

 

I Just Dont Know What To Do With Myself Chords & Tabs

White Stripes Chords & Tabs

Version: 2 Type: Tab 0 ratings
1 star 2 stars 3 stars 4 stars 5 stars
comments

I Just Dont Know What To Do With Myself Tab

   
#----------------------------------PLEASE NOTE---------------------------------#
#This file is the author's own work and represents their interpretation of the #
#song. You may only use this file for private study, scholarship, or research. #
#------------------------------------------------------------------------------#

Title: I JUST DON’T KNOW WHAT TO DO WITH MYSELF
Band: THE WHITE STRIPES
Album: ELEPHANT
Track: 4

Submitted by: EMANUELE REBECCHI
E-mail address: emanopoli@libero.it (for informations or corrections!!!)

Standard tuning

0,00 / 0,10 - INTRO

Use LIGHT DISTORTED GUITAR

e ----------------------------------------------
B ----------------------------------------------
G ---0--0-------0--0-------0--0-----------------
D ---0--0-------2--2-------0--0-----------------
A ---2--2--0/2--3--3--0/2--2--2--5--5/4--2---0--
E ---3--3------------------3--3-----------------


e ----------------------------------------------
B ----------------------------------------------
G ---0--0-------0--0-------0--0-----------------
D ---0--0-------2--2-------0--0-----------------
A ---2--2--0/2--3--3--0/2--2--2--5--5/4--2---0--
E ---3--3------------------3--3-----------------


0,10 / 0,22 - FILL 1
e ------------------------------------
B ------------------------------------
G ---0--0--0--0--0--0--0--0-----------
D ---0--0--0--2--2--2--0--0----5--5---
A ---2--2--2--3--3--3--2--2----5--5---
E ---3--3--3-----------3--3----3--3---

I just don’t know what to do with myself


[ Tab from: http://www.guitartabs.cc/tabs/w/white_stripes/i_just_dont_know_what_to_do_with_myself_tab_ver_2.html ]
0,22 / 0,39 - FILL 2
E --------------------1----1-------0--
B -----1-----1--------1----1-------1--
G -----2-----2--------2----2-------0--
D ---2-2--2--2------3----3-------TWICE--2--
A -0---0-----0----3----------------3--
E --------------1---------------------



FILL 3
e ---------------------------
B ---------------------------
G ---0--0--0--0--0--0--0--0--
D ---0--0--0--2--2--2--0--0--
A ---2--2--2--3--3--3--2--2--
E ---3--------3--3----3--3---

I just don’t know what to do

0,40 / 1,09 ---------------------


I just don’t know what to doFILL 3
-----------------------------------

1,10 / 1,29 - FILL 4

USE POWER CHORDS (distortion)

e ------- ------- ------- ------- -------
B ------- ------- ------- ------- -------
G ------- ------- ------- ------- -------
D ---5--- ---1--- ---6--- ---1--- ---7---
A ---5--- ---3--- ---8--- ---3--- ---9---
E ---3--- ---3--- ---8--- ---3--- ---9---

     G5      F5      Bb5     F5      C5 

              G5                     F5
Like a summer rose needs the sun and rain
            Bb5        F5           C5
I need your sweet love to beat love away


2,19 / 2,44 - FILL 5

USE POWER CHORDS (distortion)

e ------- ------- ------- 10--10--8/7--
B ------- ------- ------- -------------
G ------- ------- ------- -------------
D ---5--- ---1--- ---5--- -------------
A ---5--- ---3--- ---5--- -------------
E ---3--- ---3--- ---3--- -------------

     G5      F5      G5       
Comments