White Stripes - I Cant Wait Chords & Tabs

 

I Cant Wait Chords & Tabs

White Stripes Chords & Tabs

Version: 8 Type: Tab 0 ratings
1 star 2 stars 3 stars 4 stars 5 stars
comments

I Cant Wait Tab

   
I Can’t Wait
The White Stripes
White Blood Cells

Intro
e|--------------------------------------------
B|--------------------------------------------
G|------2----------------------0-----0--------
D|----2---2-0-----3--------0-----0-----0------
A|--0-----------3---3----2---2-----2-----2----
E|------------1--------3----------------------
[ Tab from: http://www.guitartabs.cc/tabs/w/white_stripes/i_cant_wait_tab_ver_8.html ]
Verse
e|--------------------------------------------
B|--------------------------------------------
G|------2----------------------0-----0--------REPEAT 4X
D|----2---2-0-----3--------0-----0-----0------
A|--0-----------3---3----2---2-----2-----2----
E|------------1--------3----------------------
                       ^(end on this note on the 4th time)  
		
Chorus Pt.1
e|--------------------------
B|--------------------------
G|-2--2---------------------
D|-2--2--3--3--5--5-5-5-----REPEAT 4X
A|-0--0--3--3--5--5-5-5-----
E|-------1--1--3--3-3-3-----

e|---
B|---
G|-4- KEEP PLAYING THIS CHORD WHILE SINGING: 
D|-4- “First you said I was blind… and it’s gonna be different this time”
A|-2-
E|---

e|------
B|------
G|------
D|--5-5-
A|--5-5-
E|--3-3-

Chorus Pt.2
e|---------------------					
B|---------------------					
G|-----------5-5-------					
D|-2-2--5-5--5-5--5-5—-REPEAT 4X	
A|-2-2--5-5--7-7--5-5--					
E|-0-0--3-3-------7-7—-					

End of Chorus
e|---------------------------
B|---------------------------
G|--------------------------- Go back to Verse then Chorus Pt. 1&2 and repeat
D|-5-5~----------3------0—--- Chorus Pt.2 in distortion then repeat End of 
A|-5-5~--------3------2----0- Chorus.
E|-3-3~----0-1------3--------       


Great, simple song. Have fun and enjoy.
Comments