White Stripes - I Cant Wait Chords & Tabs

 

I Cant Wait Chords & Tabs

White Stripes Chords & Tabs

Version: 7 Type: Tab 0 ratings
1 star 2 stars 3 stars 4 stars 5 stars
comments

I Cant Wait Tab

intro:
---------------------------------------------------------------------
----------------------------3-----3----------------------------------
---------------------------------------------------------------------
------7--------3--------5-----5-----5--------------------------------
----7---7----3---3----5---5-----5-----5------------------------------
--5--------1--------3------------------------------------------------
2x
3x(intro): I can't wait till you try to come back girl
           when things they don't work out for you
           who do you think you're messing with girl

middle:
----------------------------
----------------------------
----------------------------
------7--------3--------5---
----7---7----3---3----5---5-
--5--------1--------3-------                      (1)
what do you think you're trying to do?

----------------------------
----------------------------
----------------------------
--7-7---3-3---5-5-5---------
--7-7---3-3---5-5-5---------
--5-5---1-1---3-3-3---------                      (2)
Who do you think you're messing with girl?
What do you think you're trying to do?
Do you really think I wanna be left out girl?
Who do you think you're trying to fool?

---------------------------
---------------------------
---------------------------
-3-3-3-3-3-3-3-3-3-3-3-3-3-
-3-3-3-3-3-3-3-3-3-3-3-3-3-
-1-1-1-1-1-1-1-1-1-1-1-1-1-                       (3)
First you said I was blind
[ Tab from: http://www.guitartabs.cc/tabs/w/white_stripes/i_cant_wait_tab_ver_7.html ]
----------------------------------
----------------------------------
----------------------------------
-3-3-3-3-3-3-3-3-3-3-3-3-3--5--5--
-3-3-3-3-3-3-3-3-3-3-3-3-3--5--5--
-1-1-1-1-1-1-1-1-1-1-1-1-1--3--3--                (4)
And it's gonna be different this time

---------------------------------
---------------------------------
---------------------------------
-3-3---5-5---7-7---5-5-5---------
-3-3---5-5---7-7---5-5-5---------
-1-1---3-3---5-5---3-3-3---------                 (5)
I thought you made up your mind 
I thought you made up your mind, yeah
I thought you made up,I thought you made up,
 
-----------------------------------------
-----------------------------------------
-----------------------------------------
-3-3---5-5---7-7---5-5-5--7-------3---5--
-3-3---5-5---7-7---5-5-5--7------3---5---
-1-1---3-3---5-5---3-3-3--5-----1---3----           (6)
I thought you made up your mind



So many times I've gotten used to this
this old idea of being all alone
tell me how i'm supposed to get through with this?  (1)
I wish this house felt like a home.

Who do you think you're messing with girl?
What do you think you're trying to do?
Do you really think I wanna be left out girl?       (2)
Who do you think you're trying to fool

First you said i was blind                          (3)
 
You certainly took your time                        (4)

I thought you made up your mind
I thought you made up your mind, yeah
I thought you made up,I thought you made up,        (5)

I thought you made up your mind.                    (6)

Outro:
---------------------------------
---------------------------------
---------------------------------
-3-3---5-5---7-7---5-5-5---------
-3-3---5-5---7-7---5-5-5---------
-1-1---3-3---5-5---3-3-3---------   4x

------------------
------------------
------------------
---3---5----------
--3---5-----------
-1---3---5--------
Comments