White Stripes - I Cant Wait Chords & Tabs

 

I Cant Wait Chords & Tabs

White Stripes Chords & Tabs

Version: 5 Type: Tab 2 ratings
1 star 2 stars 3 stars 4 stars 5 stars
comments

I Cant Wait Tab

   
Don't think because im left-handed and 
Im a chick dont mean this song is messed up!
but if it is please tell me!


Intro/Riff 1

I can't wait till you try and come back girl...

E--------1--------3\2--------------------
A-0---0-----3----------2---2------2---2--
D---2---2-----3--3-------0------0---0---0
G-----2-----------------------0---0------
B----------------------------------------
E----------------------------------------

Who do you think you messing with girl...

Riff 2
E-5-55-0--1-11-0--33333xxxxxx
A-7-77-0--3-33-0--55555xxxxxx
D-7-77-0--3-33-0--55555xxxxxx
G----------------------------
B----------------------------
E----------------------------

First you said I was blind...
[ Tab from: http://www.guitartabs.cc/tabs/w/white_stripes/i_cant_wait_tab_ver_5.html ]
Riff 3
E------------------------------0-330
A-2222222222222222222222222222-0-550
D-4444444444444444444444444444-0-550
G-4444444444444444444444444444-----
B----------------------------------
E----------------------------------

I though you made up your mind...

Riff 4
E------3330-----------
A-2220-5550-5550------
D-2220-5550-7770-2220-
G-----------7770-2220-
B---------------------
E---------------------

Riff 4
E-------0--1-----3----
A-3----------3-----2--
G-5------------3-----0
B-5-------------------
E---------------------

Then you retart to Riff 1

Well there yah go I hope its easy to read cause i took me some time to 
tab it from scratch.

              Thanks 
                  Leah
Comments