White Stripes - I Cant Wait Chords & Tabs

 

I Cant Wait Chords & Tabs

White Stripes Chords & Tabs

Version: 4 Type: Tab 0 ratings
1 star 2 stars 3 stars 4 stars 5 stars
comments

I Cant Wait Tab

#----------------------------------PLEASE NOTE--------------------------------#
#This file is the author's own work and represents their interpretation of the#
#song. You may only use this file for private study, scholarship, or research.#
#-----------------------------------------------------------------------------#
#-- File created with Instab - http://www.pconline.com/~smcarey/instab.html --#
#-----------------------------------------------------------------------------#

Author/Artist: The White Stripes
Title: I Can't wait
Album: White Blood Cells
Transcribed by: Paul
Email: pmckenzie_420@hotmail.com

Hey this is my first tab but i think it sounds good so email me and let me know what you think or if theres any improvements to be made. For just now though, enjoy!

-|----------------------------------------|-----------------------------3-----
-|----------------------------------------|-----------------------------3-----
-|----------------------------------------|-----------------------------4-----
-|----7---h5------3-------------5----5----|----7---h5-------3------5----5-----
-|0-7---7------3----3----2-5-2---5-2---5-2|0-7---7-------3----3----5----5-----
-|-----------1--------/3------------------|------------1-----------3----3-----
 x 5                  /\Intro and So many times.../\                          
[ Tab from: http://www.guitartabs.cc/tabs/w/white_stripes/i_cant_wait_tab_ver_4.html ]
-----x-x--x-x--x--x---5---5----1---1---3---3---3------------------------------
-----x-x--x-x--x--x---5---5----1---1---3---3---3------------------------------
-----x-x--x-x--x--x---6---6----2---2---4---4---4------------------------------
-----x-x--x-x--x--x---7---7----3---3---5---5---5------------------------------
-----x-x--x-x--x--x---7---7----3---3---5---5---5------------------------------
-----x-x--x-x--x--x---5---5----1---1---3---3---3------------------------------
 x4                    /\oh yeah yeah yeah.../\                               

-|-------------|------------------|----------------------|--------------------
-|-------------|------------------|----------------------|--------------------
-|-------------|------------------|------------7-7-------|--------------------
-|9-9-9-9-9-9-9|-9-9-9--7-5-5-----|-5--5--5-5--7-7--7--7-|--------------------
-|9-9-9-9-9-9-9|-9-9-9--7-5-5-----|-5--5--5-5--5-5--7--7-|--------------------
-|7-7-7-7-7-7-7|-7-7-7--5-3-3-----|-7--7--3-3-------5--5-|--------------------
 X3 /\1st u said i was blind.../\  x4                                         

------------------------------------------------------------------------------
------------------------------------------------------------------------------
------------------------------------------------------------------------------
-------3-----5----2-----------------------------------------------------------
-----3-----2---0--------------------------------------------------------------
-0-1-----3--------------------------------------------------------------------
  /\Ending of song and beginning to So many times...../\                      

Comments