White Stripes - I Cant Wait Chords & Tabs

 

I Cant Wait Chords & Tabs

White Stripes Chords & Tabs

Version: 3 Type: Tab 0 ratings
1 star 2 stars 3 stars 4 stars 5 stars
comments

I Cant Wait Tab

  this is my first tab so be gentle.
  it took me about an hour and a half .
 if you have any questions or comments, email me at tatrchip001@aol.com.
  
   I cant wait
   The White Stripes

Intro/ Verse 1

(Repeat 2 times for intro, 4 times for first verse)

I cant wait till you try to come back...
------------------------------
------------------------------
----2-------------------------
---2-2-----3------5-5-5-0-----
--0---0---3-3----5-5------5-0—
---------1---1--3-------------



Chorus

(repeat 4 times)

oh, ya, ya, ya
----------------------
----------------------
--22------------------
--22--33—55-5---------
--00--33—55-5---------
------11—33-3---------


(This part isn’t the chorus, I think, repeat guitar part 28 times)

First you said I was blind....

--------------------------------------
--------------------------------------
--------------------------------------
---9999999999999999999999999999--55---
---9999999999999999999999999999--55---
---7777777777777777777777777777--33---


Chorus

(repeat 4 times)

Oh, ya, ya, ya
----------------------
----------------------
--22------------------
--22--33—55-5---------
--00--33—55-5---------
------11—33-3---------


this part leads up to second verse...
[ Tab from: http://www.guitartabs.cc/tabs/w/white_stripes/i_cant_wait_tab_ver_3.html ]
--------------
--------------
--------------
--5----3---5—-
--5---3---5---
--3--1---3----



Second verse
(repeat four times)

So many times I’ve gotten used to this...
------------------------------
------------------------------
----2-------------------------
---2-2-----3------5-5-5-0-----
--0---0---3-3----5-5------5-0—
---------1---1--3-------------

Chorus

(repeat 4 times)

Oh, ya, ya, ya
----------------------
----------------------
--22------------------
--22--33—55-5---------
--00--33—55-5---------
------11—33-3---------


First you said I was blind....

--------------------------------------
--------------------------------------
--------------------------------------
---9999999999999999999999999999--55---
---9999999999999999999999999999--55---
---7777777777777777777777777777--33---


I thought you made up your mind...
(Repeat four times)
--------------
--------------
--------------
--2-3-12-7----
--2-3-12-7----
--0-1-10-5----


(Repeat with distortion four times)
--------------
--------------
--------------
--2-3-12-7----
--2-3-12-7----
--0-1-10-5----


Ending

--------------
--------------
--------------
--5----3---5—-
--5---3---5---
--3--1---3----


 ThE wHiTe sTrIpEs rOcK!!!!!!!!!!!!!!!!!!

  pAT AND JorGES 4 LYFE!!!!!!!!
  CHECK OUT  THE BAND Docter Something. They rock too!!!!!!
Comments