White Stripes - I Cant Wait Chords & Tabs

 

I Cant Wait Chords & Tabs

White Stripes Chords & Tabs

Version: 11 Type: Tab

I Cant Wait Tab

-------------------------------------------------------------------------------
			     I can't Wait - The White Stripes
-------------------------------------------------------------------------------
Tabbed by: Tom Knight
Email: tommytough@hotmail.com
Site: www.faults.cjb.net
This Tab is 100% correct and I transcribed it by ear. If you find anything wrong with 
please email me.

Tuning: Standard

Intro/Verse
e|--------------------------------------------------------------------------------|
B|--------------------------------------------------------------------------------|
G|---------------------------------------- 0-------0------------------------------|
D|--------7----------------3-----------0------0-------0---------------------------|
A|-----7-----7----------3-----3------5---5------5--------5------------------------|
E|--5-----------------1------------3----------------------------------------------|

e|--------------------------------------------------------------------------------|
B|--------------------------------------------------------------------------------|
G|---------------------------------------- 0-------0------------------------------|
D|--------7----------------3-----------0------0-------0---------------------------|
A|-----7-----7----------3-----3------5---5------5--------5------------------------|
E|--5-----------------1------------3----------------------------------------------|


e|--------------------------------------------------------------------------------|
B|--------------------------------------------------------------------------------|
G|---------------------------------------- 0-------0------------------------------|
D|--------7----------------3-----------0------0-------0---------------------------|
A|-----7-----7----------3-----3------5---5------5--------5------------------------|
E|--5-----------------1------------3----------------------------------------------|
I can't wait 'till you try to come back girl....


e|--------------------------------------------------------------------------------|
B|--------------------------------------------------------------------------------|
G|---------------------------------------- 0-------0------------------------------|
D|--------7----------------3-----------0------0-------0---------------------------|
A|-----7-----7----------3-----3------5---5------5--------5------------------------|
E|--5-----------------1------------3----------------------------------------------|
[ Tab from: http://www.guitartabs.cc/tabs/w/white_stripes/i_cant_wait_tab_ver_11.html ]
e|--------------------------------------------------------------------------------|
B|--------------------------------------------------------------------------------|
G|---------------------------------------- 0-------0------------------------------|
D|--------7----------------3-----------0------0-------0---------------------------|
A|-----7-----7----------3-----3------5---5------5--------5------------------------|
E|--5-----------------1------------3----------------------------------------------|
Who do you think your messing with girl?

e|-----------------------------------------------------------------------------------|
B|-----------------------------------------------------------------------------------|
G|-----------------------------------------------------------------------------------|
D|--------7----------------3---------------------------------------------------------|
A|-----7-----7----------3-----3----5-------------------------------------------------|
E|--5-----------------1------------3-<-let ring -------------------------------------|
What do you think your trying to do?      Oh yeah yeahey yeahey yeah

Chorus
e|-----------------------------------------------------------------------------|
B|-----------------------------------------------------------------------------|
G|-----------------------------------------------------------------------------|
D|-----------------------------------------------------------------------------|
A|---7-7--3-3---5555-----------------------------------------------------------|
E|---5-5--1-1---3333-----------------------------------------------------------|

e|---------------------------------------------------------------------------|
B|---------------------------------------------------------------------------|
G|---------------------------------------------------------------------------|
D|------------2--------------------------------------------------------------|
A|--9-----55--2--------------------------------------------------------------|
E|--7X30--33--0--------------------------------------------------------------|

e|-------------------------------------------------------------------------------|
B|-------------------------------------------------------------------------------|
G|-------------------------------------------------------------------------------|
D|-22----------------------------------------------------------------------------|
A|-22---55--1212---99------------------------------------------------------------|
E|-00---33--1010---77------------------------------------------------------------|

e|-------------------------------------------------------------------------------|
B|-------------------------------------------------------------------------------|
G|-------------------------------------------------------------------------------|
D|-----3-----5-------------------------------------------------------------------|
A|---3-----5---------------------------------------------------------------------|
E|-1-----3-----------------------------------------------------------------------|

Here are all the parts for the song, you can work the timing out ect ect.