White Stripes - I Cant Wait Chords & Tabs

 

I Cant Wait Chords & Tabs

White Stripes Chords & Tabs

Version: 10 Type: Tab 0 ratings
1 star 2 stars 3 stars 4 stars 5 stars
comments

I Cant Wait Tab

White Stripes
I Can't Wait
From the album "White Blood Cells"

Intro/Verse: (Have a warm but slightly overdriven tone)

E|-----------------|-----------------|-----------------------------|
B|-----------------|-----------------|-----------------------------|
G|--------4--------|-----------------|-----------------------------|
D|-----4-----4--0--|--------5--------|--------7--------------7-----|
A|--2--------------|-----5-----5--0--|-----7-----7-----7--------7--|
E|-----------------|--3--------------|--5-----------5-----5--------|

I can't wait 'til you try to come back girl,
When things they don't work out for you,
Who do you think you're messing with girl?

Pre-chorus:


E|-----------------|-----------------|-----|------|--------------------|
B|-----------------|-----------------|-----|------|--------------------|
G|--------4--------|-----------------|-----|------|--x--x--x--x--x--x--|
D|-----4-----4--0--|--------5--------|--7--|--7*--|--x--x--x--x--x--x--|
A|--2--------------|-----5-----5--0--|--7--|--7*--|--x--x--x--x--x--x--|
E|-----------------|--3--------------|--5--|--5*--|--x--x--x--x--x--x--|
    What do you       think you're...     do?          Oh yeah yeah yeah...

*- tone of chord goes to clean for chorus.

Chorus:

E|--------------|--------------|--------|--------------------|
B|--------------|--------------|--------|--------------------|
G|--------------|--------------|--------|--x--x--x--x--x--x--|
D|--4--4--4--4--|--5--5--5--5--|--7--7--|--x--x--x--x--x--x--|
A|--4--4--4--4--|--5--5--5--5--|--7--7--|--x--x--x--x--x--x--|
E|--2--2--2--2--|--3--3--3--3--|--5--5--|--x--x--x--x--x--x--|
    Who do you     think...         with...    Oh yeah yeah yeah...

What do you think you're trying to do? (Oh yeah yeah yeah)
Do you really think I wanna live like that girl? (Oh yeah yeah yeah)
Who do you think you're trying to fool? 

Bridge:

E|-----------------------------------------------------------------|
B|-----------------------------------------------------------------|
G|-----------------------------------------------------------------|
D|--4--4--4--4--4--4--4--4--4--4--4--4--4--4--4--4--4--4--4--4--4--|
A|--4--4--4--4--4--4--4--4--4--4--4--4--4--4--4--4--4--4--4--4--4--|
E|--2--2--2--2--2--2--2--2--2--2--2--2--2--2--2--2--2--2--2--2--2--|
    First you said I was blind, it's gonna be different this time...
[ Tab from: http://www.guitartabs.cc/tabs/w/white_stripes/i_cant_wait_tab_ver_10.html ]
E|--------------------|--------------------------------------|.|
B|--------------------|--------------------------------------|.|
G|--------------------|--------------------------------------|.|
D|--5--5--5--5--5--5--|--7--7--7--7--7--7--7--7--7--7--7--7--|.|
A|--5--5--5--5--5--5--|--7--7--7--7--7--7--7--7--7--7--7--7--|.|
E|--3--3--3--3--3--3--|--5--5--5--5--5--5--5--5--5--5--5--5--|.|
                         I thought you'd made up your mind...
  
E|--------------------|----------------------------|
B|--------------------|----------------------------|
G|--------------------|----------------------------|
D|--5--5--5--5--5--5--|--7--7-------7-----5----7---|
A|--5--5--5--5--5--5--|--7--7-------7-----5----7---|
E|--3--3--3--3--3--3--|--5--5-------5-----3----5---|
                 ...oh     I  thought you'd made up...

Outro:

Guitar One:

E|--------------|--------------|--------------|--------------|
B|--------------|--------------|--------------|--------------|
G|--------------|--------------|--------------|--------------|
D|--9--9--9--9--|--5--5--5--5--|--7--7--7--7--|--5--5--5--5--|
A|--9--9--9--9--|--5--5--5--5--|--7--7--7--7--|--5--5--5--5--|
E|--7--7--7--7--|--3--3--3--3--|--5--5--5--5--|--3--3--3--3--|

Guitar Two:

E|--------------|--------------|---------------|--------------|
B|--------------|--------------|---------------|--------------|
G|--------------|--------------|---------------|--------------|
D|--------------|--------------|---------------|--------------|
A|--2--2--2--2--|--------------|--0--0--0--0---|--------------|
E|--------------|--3--3--3--3--|---------------|--3--3--3--3--|

 Additional song lyrics:

1. I can't wait 'til you try to come back girl,
   When things they don't work out for you
   Who do you think you're messing with girl?
   What do you think you're trying to do?
   Oh yeah yeah yeah

C. Who do you think you're messing with girl? (Oh yeah yeah yeah)
   What do you think you're trying to do? (Oh yeah yeah yeah)
   Do you really think I wanna be like that girl? (Oh yeah yeah yeah)
   Who do you think you're trying to fool?

B. First you said I was blind,
   Well it's gonna be different this time.
   I thought you'd made up your mind.
   I thought you'd made up...
   I thought you'd made up your mind.
 
2. So many times I've gotten used to this,
   This old idea of being all alone
   Tell me how I'm supposed to get through with this,
   I wish this house felt like a home.
   Oh yeah yeah yeah
Comments