White Stripes - Hypnotize Chords & Tabs

 

Hypnotize Chords & Tabs

White Stripes Chords & Tabs

Version: 2 Type: Tab 0 ratings
1 star 2 stars 3 stars 4 stars 5 stars
comments

Hypnotize Tab

White Stripes 
Hypnotize
Album: Elephant
Tabbed by PaulGanja
Standard Tuning

Intro x 2
E|------------------------------------|
B|-----------------9------------------|
G|---6-6-X-9--9--X-9-X-9--9--9--X-----|
D|---7-7-X-10-10-X-9-X-10-10-10-X-----|
A|---7-7-X-10-10-X-7-X-10-10-10-X-----|
E|---5-5-X-8--8--X-----8--8--8--X-----|

Verse 1
E|------------------------------------------------------|
B|-----------------9------------------------------------|
G|---6-6-X-9--9--X-9-X-9--9--9--X--6-6-6-6-6-2-4-6-6-6--|
D|---7-7-X-10-10-X-9-X-10-10-10-X--7-7-7-7-7-3-5-7-7-7--|
A|---7-7-X-10-10-X-7-X-10-10-10-X--7-7-7-7-7-3-5-7-7-7--|
E|---5-5-X-8--8--X-----8--8--8--X--5-5-5-5-5-1-3-5-5-5--|
     "I want to hypnotize you baby, on the telephone"

E|-------------------------------------------------------|
B|-----------------9---------------9-9-9-9-10-9-9-9-9-9--|
G|---6-6-X-9--9--X-9-X-9--9--9--X--9-9-9-9-10-9-9-9-9-9--|
D|---7-7-X-10-10-X-9-X-10-10-10-X--9-9-9-9-10-9-9-9-9-9--|
A|---7-7-X-10-10-X-7-X-10-10-10-X--7-7-7-7-8--7-7-7-7-7--|
E|---5-5-X-8--8--X-----8--8--8--X------------------------|
"So many times I called your house, just to hear the tone"

E|-----------------------------------------------------------|
B|-----------------9---------------10-10-7-7-9-9-------------|
G|---6-6-X-9--9--X-9-X-9--9--9--X--10-10-7-7-9-9-x-9--9--9---|
D|---7-7-X-10-10-X-9-X-10-10-10-X--10-10-7-7-9-9-x-10-10-10--|
A|---7-7-X-10-10-X-7-X-10-10-10-X--8--8--5-5-7-7-x-10-10-10--|
E|---5-5-X-8--8--X-----8--8--8--X------------------8--8--8---|
     "And though I knew that you weren't home,..."
     "..I didn't mind so much 'cause I'm so alone"

E|------------------------------------------------------|
B|-----------------9------------------------------------|
G|---6-6-X-9--9--X-9-X-9--9--9--X--6-6-6-6-6-2-4-6-6-6--|
D|---7-7-X-10-10-X-9-X-10-10-10-X--7-7-7-7-7-3-5-7-7-7--|
A|---7-7-X-10-10-X-7-X-10-10-10-X--7-7-7-7-7-3-5-7-7-7--|
E|---5-5-X-8--8--X-----8--8--8--X--5-5-5-5-5-1-3-5-5-5--|
     "I want to hypnotize you baby, on the telephone"

Verse 2 - Same order as Verse 1
[ Tab from: http://www.guitartabs.cc/tabs/w/white_stripes/hypnotize_tab_ver_2.html ]
Break
E|------------------------------------------------------|
B|------------------------------------------------------|
G|------------------------------------------------------|
D|------------------------------------------------------|
A|----------------------------------------------2*------|
E|---5-5-5-5-5-5-5-5-5-5-5*---1-1-1-1-3-3-3-3---0-------|
Note: I haven't put the amount of times 'cos its easy to work out 
but its this pattern with the 0/2 chord at the end

Intro x 4
E|------------------------------------|
B|-----------------9------------------|
G|---6-6-X-9--9--X-9-X-9--9--9--X-----|
D|---7-7-X-10-10-X-9-X-10-10-10-X-----|
A|---7-7-X-10-10-X-7-X-10-10-10-X-----|
E|---5-5-X-8--8--X-----8--8--8--X-----|

Verse 3
E|------------------------------------------------------|
B|-----------------9------------------------------------|
G|---6-6-X-9--9--X-9-X-9--9--9--X--6-6-6-6-6-2-4-6-6-6--|
D|---7-7-X-10-10-X-9-X-10-10-10-X--7-7-7-7-7-3-5-7-7-7--|
A|---7-7-X-10-10-X-7-X-10-10-10-X--7-7-7-7-7-3-5-7-7-7--|
E|---5-5-X-8--8--X-----8--8--8--X--5-5-5-5-5-1-3-5-5-5--|
  "I want to hold your little hand, if I can be so bold"

E|-------------------------------------------------------|
B|-----------------9---------------9-9-9-9-10-9-9-9-9-9--|
G|---6-6-X-9--9--X-9-X-9--9--9--X--9-9-9-9-10-9-9-9-9-9--|
D|---7-7-X-10-10-X-9-X-10-10-10-X--9-9-9-9-10-9-9-9-9-9--|
A|---7-7-X-10-10-X-7-X-10-10-10-X--7-7-7-7-8--7-7-7-7-7--|
E|---5-5-X-8--8--X-----8--8--8--X------------------------|
    "And be your right hand man 'til your hands get old"

E|----------------------------------------------|
B|-----------------9---------------10-10-7-7----|
G|---6-6-X-9--9--X-9-X-9--9--9--X--10-10-7-7----|
D|---7-7-X-10-10-X-9-X-10-10-10-X--10-10-7-7----|
A|---7-7-X-10-10-X-7-X-10-10-10-X--8--8--5-5----|
E|---5-5-X-8--8--X-----8--8--8--X---------------|
"And then when all the feeling's gone...
"...Just decide if you want to keep"

E|----------------------|
B|---9---7----5----2----|
G|---9---7----5----2----|
D|---9---7----5----2----|
A|---7---5----3----0----|
E|----------------------|
    "H---ol--din---on"

E|------------------------------------------------------|
B|-----------------9------------------------------------|
G|---6-6-X-9--9--X-9-X-9--9--9--X--6-6-6-6-6-6-6-6-6-6--|
D|---7-7-X-10-10-X-9-X-10-10-10-X--7-7-7-7-7-7-7-7-7-7--|
A|---7-7-X-10-10-X-7-X-10-10-10-X--7-7-7-7-7-7-7-7-7-7--|
E|---5-5-X-8--8--X-----8--8--8--X--5-5-5-5-5-5-5-5-5-5--|
  "I want to hold your little hand, if I can be so bold"
  "            			    if I can be so bold"
  "                     	    if I can be so bold"
Comments