White Stripes - Hypnotize Chords & Tabs

 

White Stripes Chords & Tabs

Version: 1 Type: Tab 1 rating
1 star 2 stars 3 stars 4 stars 5 stars
comments

Hypnotize Tab

Song: Hypnotize
Artist: The White Stripes
Album: Elephant
Tabbed by Robert Tabb
tenpercenter@godisdead.com

Standard Tuning

1
|------------------------------|
|------------------------------|
|----------5--5-5--9-9--5-5-5--|
|--7--7-7--5--5-5--9-9--5-5-5--|
|--7--7-7--3--3-3--7-7--3-3-3--|
|--5--5-5----------------------|
Play this twice, then once with the lyrics.
Then play
2
|-------------------------|
|-------------------------|
|-------------------------|
|--7--7-7--7-7-7--3-3--7--|
|--7--7-7--7-7-7--3-3--7--|
|--5--5-5--5-5-5--1-1--5--|
[ Tab from: http://www.guitartabs.cc/tabs/w/white_stripes/hypnotize_tab.html ]
Play 1 again then play
3
|----------------------|
|----------------------|
|--9--9-9-9-10--9-9-9--|
|--9--9-9-9-10--9-9-9--|
|--7--7-7-7--8--7-7-7--|
|----------------------|
Play 1 again, then play
4
|-------------------------------|
|-------------------------------|
|--10--10-10--7--7-7--9-9-9-----|
|--10--10-10--7--7-7--9-9-9--7--|
|---8---8--8--5--5-5--7-7-7--7--|
|-------------|--------------5--|

Play 1 and 2 

Play 1 and 2 
Then 1 and 3 
Then 1 and 4
Then 1 and 2


|-------------------------------------------|
|-------------------------------------------|
|-------------------------------------------|
|-------------------------------------------|
|-------------------------------------------|
|--5-5-5-5-5-5-5-5-5-5...--1-1-1-1-3-3-3-3--|
Play three times
Then play again only this time you don't play the A as many times
Just listen to it and you should hear it.

|--------------------|
|--------------------|
|--------------------|
|--------------------|
|--------------------|
|--0-0-0-0-0-0-0...--|

Then back to 1 five times
Then 2
Then 1 and 3
Then 1 and 4
Then 1 
Then you play an A and just keep playing it to the end.



Comments