White Stripes - Hypnotize Chords & Tabs

 

Hypnotize Chords & Tabs

White Stripes Chords & Tabs

Version: 1 Type: Bass Tab 0 ratings
1 star 2 stars 3 stars 4 stars 5 stars
comments

Hypnotize Bass Tab

*Note: i am aware that the white stripes dont have a bass player but in my band i play it like this:

Intro
|---------------------------|
|---------------------------|
|---------------7-----------| 2x
|---5-5--8--8-------8--8--8-|

Verse 1       
|------------------------------------------------|
|------------------------------------------------|
|---------------7--------------------------------|
|---5-5--8--8------8--8--8--5-5-5-5-5-1-3-5-5-5--|

|------------------------------------------------|
|------------------------------------------------|
|---------------7-----------7-7-7-7-8--7-7-7-7-7-|
|---5-5--8--8------8--8--8-----------------------|
                                                              2x
|------------------------------------------------|
|------------------------------------------------|
|--------------7----------8--8--5-5-7-7----------|
|---5-5--8--8----8--8--8-----------------8--8--8-|
[ Tab from: http://www.guitartabs.cc/tabs/w/white_stripes/hypnotize_btab.html ]
|------------------------------------------------|
|------------------------------------------------|
|---------------7--------------------------------|
|---5-5--8--8------8--8--8--5-5-5-5-5-1-3-5-5-5--|

Break for guitar

Intro 4x

Verse 3
|------------------------------------------------|
|------------------------------------------------|
|---------------7--------------------------------|
|---5-5--8--8------8--8--8--5-5-5-5-5-1-3-5-5-5--|

|------------------------------------------------|
|------------------------------------------------|
|---------------7-----------7-7-7-7-8--7-7-7-7-7-|
|---5-5--8--8------8--8--8-----------------------|

|--------------------------------------|
|--------------------------------------|
|--------------7----------8--8--5-5----|
|---5-5--8--8----8--8--8---------------|

|----------------------|
|----------------------|
|---7---5----3----0----|
|----------------------|

|--------------------------------------------|
|--------------------------------------------|
|-------------7------------------------------|
|---5-5--8--8---8--8--8--5-5-5-5-5-5-5-5-5-5-|


                                           END
Comments