White Stripes - Hypnotise Chords & Tabs

 

Hypnotise Chords & Tabs

White Stripes Chords & Tabs

Version: 1 Type: Tab 1 rating
1 star 2 stars 3 stars 4 stars 5 stars
comments

Hypnotise Tab

#----------------------------------PLEASE NOTE----------------------------------#
# This file is the author's own work and represents their interpretation of the #
# song. You may only use this file for private study, scholarship, or research. #
#-------------------------------------------------------------------------------#


      Standard Tuning
      No Capo

-----------------------------------------------------------------------------------------

Intro


E-----------------|-----------------|-----------------|-----------------|
B-----------------|-----------------|-----------------|-----------------|
G-----------------|--9--9-----------|-----------------|--9--9-----------|
D--7--7-7--10-10--|--9--9--10-10-10-|--7--7-7--10-10--|--9--9--10-10-10-|
A--7--7-7--10-10--|--7--7--10-10-10-|--7--7-7--10-10--|--7--7--10-10-10-|
E--5--5-5--8--8---|--------8--8--8--|--5--5-5--8--8---|--------8--8--8--|


-----------------------------------------------------------------------------------------

Verse 1
      
E-----------------|-----------------|-----------------|-----------------|
B-----------------|-----------------|-----------------|-----------------|
G-----------------|--9--9-----------|-----------------|-----------------|
D--7--7-7--10-10--|--9--9--10-10-10-|--7--7-7--7-7-7--|---3-5-7--7------|
A--7--7-7--10-10--|--7--7--10-10-10-|--7--7-7--7-7-7--|---3-5-7--7------|
E--5--5-5--8--8---|--------8--8--8--|--5--5-5--5-5-5--|---1-3-5--5------|

I wanna hypnotise you baby on the telephone    ....  

E-----------------|-----------------|-----------------|-----------------|
B-----------------|-----------------|-----------------|-----------------|
G-----------------|--9--9-----------|--9--9-9--9-9-9--|---10-9-9-9------|
D--7--7-7--10-10--|--9--9--10-10-10-|--9--9-9--9-9-9--|---10-9-9-9------|
A--7--7-7--10-10--|--7--7--10-10-10-|--7--7-7--7-7-7--|---8--7-7-7------|
E--5--5-5--8--8---|--------8--8--8--|-----------------|-----------------|



-----------------------------------------------------------------------------------------

Chorus
      
E-----------------|-----------------|-----------------|-----------------|
B-----------------|-----------------|-----------------|-----------------|
G-----------------|--9--9-----------|--10-107-7-7-----|---9-9-----------|
D--7--7-7--10-10--|--9--9--10-10-10-|--10-107-7-7-----|---9-9--7--7-7---|
A--7--7-7--10-10--|--7--7--10-10-10-|--8--8-5-5-5-----|---7-7--7--7-7---|
E--5--5-5--8--8---|--------8--8--8--|-----------------|--------5--5-5---|

    And though I know that you're not home, it doesn't matter much cos I'm so alone      

E-----------------|-----------------|-----------------|-----------------|
B-----------------|-----------------|-----------------|-----------------|
G-----------------|--9--9-----------|--9--9-9--9-9-9--|-----------------|
D--7--7-7--10-10--|--9--9--10-10-10-|--9--9-9--9-9-9--|---3-5-7--7-7----|
A--7--7-7--10-10--|--7--7--10-10-10-|--7--7-7--7-7-7--|---3-5-7--7-7----|
E--5--5-5--8--8---|--------8--8--8--|-----------------|---1-3-5--5-5----|



-----------------------------------------------------------------------------------------

Verse 2
      
E-----------------|-----------------|-----------------|-----------------|
B-----------------|-----------------|-----------------|-----------------|
G-----------------|--9--9-----------|-----------------|-----------------|
D--7--7-7--10-10--|--9--9--10-10-10-|--7--7-7--7-7-7--|---3-5-7--7------|
A--7--7-7--10-10--|--7--7--10-10-10-|--7--7-7--7-7-7--|---3-5-7--7------|
E--5--5-5--8--8---|--------8--8--8--|--5--5-5--5-5-5--|---1-3-5--5------|

I wanna spin my little watch around before your eyes      

E-----------------|-----------------|-----------------|-----------------|
B-----------------|-----------------|-----------------|-----------------|
G-----------------|--9--9-----------|--9--9-9--9-9-9--|---10-9-9-9------|
D--7--7-7--10-10--|--9--9--10-10-10-|--9--9-9--9-9-9--|---10-9-9-9------|
A--7--7-7--10-10--|--7--7--10-10-10-|--7--7-7--7-7-7--|---8--7-7-7------|
E--5--5-5--8--8---|--------8--8--8--|-----------------|-----------------|



-----------------------------------------------------------------------------------------

Chorus
      
E-----------------|-----------------|-----------------|-----------------|
B-----------------|-----------------|-----------------|-----------------|
G-----------------|--9--9-----------|--10-107-7-7-----|---9-9-----------|
D--7--7-7--10-10--|--9--9--10-10-10-|--10-107-7-7-----|---9-9--7--7-7---|
A--7--7-7--10-10--|--7--7--10-10-10-|--8--8-5-5-5-----|---7-7--7--7-7---|
E--5--5-5--8--8---|--------8--8--8--|-----------------|--------5--5-5---|

    And if that comes as a surprise, just think of all those guys who tell you lies      
[ Tab from: http://www.guitartabs.cc/tabs/w/white_stripes/hypnotise_tab.html ]
E-----------------|-----------------|-----------------|-----------------|
B-----------------|-----------------|-----------------|-----------------|
G-----------------|--9--9-----------|--9--9-9--9-9-9--|-----------------|
D--7--7-7--10-10--|--9--9--10-10-10-|--9--9-9--9-9-9--|---3-5-7--7-7----|
A--7--7-7--10-10--|--7--7--10-10-10-|--7--7-7--7-7-7--|---3-5-7--7-7----|
E--5--5-5--8--8---|--------8--8--8--|-----------------|---1-3-5--5-5----|



-----------------------------------------------------------------------------------------

Solo

E-----------------|-----------------|-----------------|-----------------|
B-----------------|-----------------|-----------------|-----------------|
G-----------------|-----------------|-----------------|-----------------|
D-----------------|-----------------|-----------------|-----------------| x2 
A-----------------|-----------------|-----------------|-----------------|
E-5555555555555555|-55555-5555555555|-0111033305555555|-5555555555555555|


E-----------------|-----------------|-----------------|-----------------|
B-----------------|-----------------|-----------------|-----------------|
G-----------------|-----------------|-----------------|-----------------|
D-----------------|-----------------|-----------------|-----------------|
A-----------------|-----------------|-----------------|-----------------|
E-5555555555555555|-0111033300000000|-0000000000000000|-----------------|


-----------------------------------------------------------------------------------------

Bridge/Intro


E-----------------|-----------------|-----------------|-----------------|
B-----------------|-----------------|-----------------|-----------------|
G-----------------|--9--9-----------|-----------------|--9--9-----------|
D--7--7-7--10-10--|--9--9--10-10-10-|--7--7-7--10-10--|--9--9--10-10-10-|
A--7--7-7--10-10--|--7--7--10-10-10-|--7--7-7--10-10--|--7--7--10-10-10-|
E--5--5-5--8--8---|--------8--8--8--|--5--5-5--8--8---|--------8--8--8--|



E-----------------|-----------------|-----------------|-----------------|
B-----------------|-----------------|-----------------|-----------------|
G-----------------|--9--9-----------|-----------------|--9--9-----------|
D--7--7-7--10-10--|--9--9--10-10-10-|--7--7-7--10-10--|--9--9--10-10-10-|
A--7--7-7--10-10--|--7--7--10-10-10-|--7--7-7--10-10--|--7--7--10-10-10-|
E--5--5-5--8--8---|--------8--8--8--|--5--5-5--8--8---|--------8--8--8--|

-----------------------------------------------------------------------------------------

Verse 1
      
E-----------------|-----------------|-----------------|-----------------|
B-----------------|-----------------|-----------------|-----------------|
G-----------------|--9--9-----------|-----------------|-----------------|
D--7--7-7--10-10--|--9--9--10-10-10-|--7--7-7--7-7-7--|---3-5-7--7------|
A--7--7-7--10-10--|--7--7--10-10-10-|--7--7-7--7-7-7--|---3-5-7--7------|
E--5--5-5--8--8---|--------8--8--8--|--5--5-5--5-5-5--|---1-3-5--5------|


      
E-----------------|-----------------|-----------------|-----------------|
B-----------------|-----------------|-----------------|-----------------|
G-----------------|--9--9-----------|--9--9-9--9-9-9--|---10-9-9-9------|
D--7--7-7--10-10--|--9--9--10-10-10-|--9--9-9--9-9-9--|---10-9-9-9------|
A--7--7-7--10-10--|--7--7--10-10-10-|--7--7-7--7-7-7--|---8--7-7-7------|
E--5--5-5--8--8---|--------8--8--8--|-----------------|-----------------|


-----------------------------------------------------------------------------------------

Chorus
      
E-----------------|-----------------|-----------------|-----------------|
B-----------------|-----------------|-----------------|-----------------|
G-----------------|--9--9-----------|--10-107-7-7-----|---9-7-----------|
D--7--7-7--10-10--|--9--9--10-10-10-|--10-107-7-7-----|---9-7--9--7-----|
A--7--7-7--10-10--|--7--7--10-10-10-|--8--8-5-5-5-----|---7-5--9--7-----|
E--5--5-5--8--8---|--------8--8--8--|-----------------|--------7--5-----|

And then when all the feeling's gone ...   
 
E-----------------|-----------------|-----------------|-----------------|
B-----------------|-----------------|-----------------|-----------------|
G-----------------|--9--9-----------|-----------------|-----------------|
D--7--7-7--10-10--|--9--9--10-10-10-|---7--7-7--7-7---|---7--7-7--7-7---|
A--7--7-7--10-10--|--7--7--10-10-10-|---7--7-7--7-7---|---7--7-7--7-7---|
E--5--5-5--8--8---|--------8--8--8--|---5--5-5--5-5---|---5--5-5--5-5---|

I wanna hold your little hand ...

-----------------------------------------------------------------------------------------

Outro

E-----------------|-----------------|-----------------|-----------------|
B-----------------|-----------------|-----------------|-----------------|
G-----------------|-----------------|-----------------|-----------------|
D--7--7-7--7-7----|--7--7-7--7-7----|--7--------------|-----------------| 
A--7--7-7--7-7----|--7--7-7--7-7----|--7--------------|-----------------|
E--5--5-5--5-5----|--5--5-5--5-5----|--5--------------|---------------

 
 
Comments