White Stripes - Hotel Yorba Chords & Tabs

 

Hotel Yorba Chords & Tabs

White Stripes Chords & Tabs

Version: 2 Type: Tab 1 rating
1 star 2 stars 3 stars 4 stars 5 stars
comments

Hotel Yorba Tab

   
Introduction:

H=Hammer on
[ Tab from: http://www.guitartabs.cc/tabs/w/white_stripes/hotel_yorba_tab_ver_2.html ]
E----------3-------|------------------|-------------------|
B----------3-------|------------3-----|-------------------|
G-----0--0-0----0--|------------0-----|-------------0-----|
D-----0-------0-0--|------0--0--------|-------0-----0--0--|
A-------------2----|--0-2-------------|--0-2-----0--2--0--|
E--3---------------|---------------3--|-------------------|
		       H		  H	   H


E-----3--3--3--------|
B-----3--3--3--0--0--|
G-----0--0--0--0--0--|
D-----0--0-----0--0--|
A--2--2--2-----0--0--|
E--3--3--3-----------|

This is played very fast, but it becomes easy in the end
Comments