White Stripes - Hotel Yorba Chords & Tabs

 

White Stripes Chords & Tabs

Version: 1 Type: Tab 3 ratings
1 star 2 stars 3 stars 4 stars 5 stars
comments

Hotel Yorba Tab

   
#----------------------------------PLEASE NOTE---------------------------------#
#This file is the author's own work and represents their interpretation of the #
#song. You may only use this file for private study, scholarship, or research. #
#------------------------------------------------------------------------------#



The White Stripes
Hotel Yorba ( White Blood Cells)

From: billabong7686_@hotmail.com  Dane Wilson
It's a really cool song it's a bit country to what I listen to usually listen to. 

G                
||---|-2-|---|   
||---|-2-|---|   
||---|-0-|---|   
||---|-0-|---| 
||---|-2-|---|
||---|-3-|---|
  
C
||---|-0-|---|   
||---|-1-|---|   
||---|-0-|---|   
||---|-2-|---| 
||---|-3-|---|
||---|-X-|---|
[ Tab from: http://www.guitartabs.cc/tabs/w/white_stripes/hotel_yorba_tab.html ]
D
||---|-2-|---|   
||---|-3-|---|   
||---|-2-|---|   
||---|-0-|---| 
||---|-X-|---|
||---|-X-|---|



Intro

E  |- - - - - - - 3- -3 - - - - - - - - - - - - - - - - - - - - - - - - - - 3- - - - |
B  |- - - - - - - 3 - - - - - - - - - - - - - - - - - - - - - - - - - - - - 3- - - - |
G  |- - - - - - - 0- - - -0- - - - - 0- - - - - - - - - - - - - - - - - - - 0- - - - |
D  |- - - - - - - - - - - -- - - - - 0-  - - - - 0- - - - - -0- - - - - - - - - - - -|
A  |- - - 2- - - - - - - - - -0- h2- - - - 0- h2- - -- 0- h2- - - - - 2- - - - - - - |
E  |- - - 3- - - - - - - - - - - - - - - - - - - - - - - - - - - - - -3 - - - - - - -|


Verse/Chours

It just goes through the 3 same chords G-C-D that's it

Any comments please send to billabong7686_@hotmail.com




Comments