White Stripes - Hello Operator Chords & Tabs

 

Hello Operator Chords & Tabs

White Stripes Chords & Tabs

Version: 2 Type: Tab 4 ratings
1 star 2 stars 3 stars 4 stars 5 stars
comments

Hello Operator Tab

   
White stripes
Hello operator from that nice picture 7"
---------------------------------------

Tabbed by samuel2021@hotmail.com

I'm tabbing the minimum. I won't tab the solos because I'm not playing the same things that are on the records. But if you figured them out, please drop me a line.
So here we go for a very basic tab:

verse:
[ Tab from: http://www.guitartabs.cc/tabs/w/white_stripes/hello_operator_tab_ver_2.html ]
e------------5--------------2    
B------------5--------------2
G-7--5(h7)---6---7--5(h7)---3 a few times
D----------7-7------------7-4
A------------7--------------4
E------------5--------------2

chorus then:
e-5-5-5-5-7-7-
B-5-5-5-5-7-7-
G-7-7-5-5-7-7-
D-7-7-7-7-9-9-
A-5-5-7-7-9-9-
e-5-7-5-5-7-7-

e-5-5-5-5-7-7-
B-5-5-5-5-7-7-
G-7-7-5-5-9-9-
D-7-7-7-7-9-9-
A-5-5-7-7-7-7-
e-5-7-5-5-7-7-

Have fun!
please email comments, corrections, insults whatever...
drop ma a line if you have tabs for unwound, ligament, calvin johnson, hood, low, white stripes,moldy peaches...

Comments