White Stripes - Hardest Button To Button Main Riff Chords & Tabs

 

Hardest Button To Button Main Riff Chords & Tabs

White Stripes Chords & Tabs

Version: 1 Type: Tab 1 rating
1 star 2 stars 3 stars 4 stars 5 stars
comments

Hardest Button To Button Main Riff Tab

   
Alright this is the main riff as I have figured it out. There is a constant bass note that Jack makes with the octave pedal. I find just strumming the A note on the low E string does the trick quite well.
[ Tab from: http://www.guitartabs.cc/tabs/w/white_stripes/hardest_button_to_button_main_riff_tab.html ]
   (all chords are fifth root)
   A       C  
e----------------------
B----------------------
G----2------5----------
D-----2------5---------
A--0---0---3--3-------- x3
E----------------------
    B        D
e----------------------
B----------------------
G----4------7----------
D-----4------7---------
A--2---2---5--5-------- 
E----------------------

After this you can figure it out. I'm pretty sure he stums the chorus as a 6th root power chords. 


"We don't know you. And we don't owe you." - The hardest button to button.

Comments