White Stripes - Hardest Button To Button Chords & Tabs

 

Hardest Button To Button Chords & Tabs

White Stripes Chords & Tabs

Version: 1 Type: Chords 3 ratings
1 star 2 stars 3 stars 4 stars 5 stars
comments

Hardest Button To Button Chords

   
The white stripes  - The hardest Button to button
From: Elephant
www.whitestripes.com

This figure is played in the intro and verses over the power chords. Here is the figure played on open strings. Play it over the power chords and you got yourself the intro and the verses. 
||--------------||
||--------------||
||--------------||
||-----0--------||
||--------0-----||
||--0--------0--||

Just in case, here is the figure played over the power chords:

      A5             C5             A5              C5
||--------------|--------------|--------------|--------------|
||--------------|--------------|--------------|--------------|
||--------------|-----5--------|--------------|-----5--------|
||-----7--------|--------5-----|-----7--------|--------5-----|
||--------7-----|--3--------3--|--------7-----|--3--------3--|
||--5--------5--|--------------|--5--------5--|--------------|

      A5             C5             B5              D5
||--------------|--------------|--------------|--------------|
||--------------|--------------|--------------|--------------|
||--------------|-----5--------|-----4--------|-----7--------|
||-----7--------|--------5-----|--------4-----|--------7-----|
||--------7-----|--3--------3--|--2--------2--|--5--------5--|
||--5--------5--|--------------|--------------|--------------|


Intro: Four bars: Drums & bass only
       Fifth bar: Guitar intro starts:

                  A5   C5    A5   C5
                   
                  A5   C5    B5   D5

                  A5   C5    A5   C5
                   
                  A5   C5    B5   D5 


Verse 1:          A5   C5    A5   C5
                   
                  A5   C5    B5   D5
[ Tab from: http://www.guitartabs.cc/tabs/w/white_stripes/hardest_button_to_button_crd.html ]
                  A5   C5    A5   C5

                  A5   C5    B5   Bb5



In the chorus you play the same power chords, but not the figure. You just strum them. Listen to the record to get a sense of the strumming pattern.

Chorus 1:         A5   C5    A5   C5
                   
                  A5   C5    B5   D5

                  
                  A5   C5    A5   C5

                  A5   C5    B5   Bb5

 



Four bars: Drums & bass only
Fifth bar: Guitar starts (like the intro, this time just one round):

                  A5   C5    A5   C5
                   
                  A5   C5    B5   D5


Verse 2 :         A5   C5    A5   C5
                   
                  A5   C5    B5   D5



Chorus 2:         A5   C5    A5   C5
                   
                  A5   C5    B5   D5

                  
                  A5   C5    A5   C5

                  A5   C5    B5   Bb5


                  A5   C5    A5   C5
                   
                  A5   C5    B5   D5

                  
                  A5   
                  C5    
                  A5    You should listen to the record on the last part.
                        It’s pretty easy and still the same power chords.
                  C5
                  A5   
                  C5    
                  A5







(tabbed by SAndraM. Request and/or corrections at sandramileo@hotmail.com)



Comments