White Stripes - Fell In Love With A Girl Chords & Tabs

 

Fell In Love With A Girl Chords & Tabs

White Stripes Chords & Tabs

Version: 6 Type: Tab 0 ratings
1 star 2 stars 3 stars 4 stars 5 stars
comments

Fell In Love With A Girl Tab

Author: White Stripes
Title: Fell in Love With a Girl
Tabbed by: Rob Joyce
Email: rob_joyce@hotmail.com
Tabbed: 19/04/02

Heres the tab. It was easy to figure out. Enjoy.

Standard tuning
[ Tab from: http://www.guitartabs.cc/tabs/w/white_stripes/fell_in_love_with_a_girl_tab_ver_6.html ]
Main Riff:
e|---------------------------------------------------------
B|-4-44-44--2-22-22--7-77-77-------------------------------
G|-4-44-44--2-22-22--7-77-77-------------------------------
D|-4-44-44--2-22-22--7-77-77--2-22-22----------------------
A|-2-22-22--0-00-00--5-55-55--2-22-22----------------------
E|----------------------------0-00-00----------------------

    
e|---------------------------------------------------------
B|-------------------7-77-77-------------------------------
G|-------------------7-77-77-------------------------------
D|-4-44-44--7-77-77--7-77-77--2-22-22--4-44-44--7-77-77--4-
A|-4-44-44--7-77-77--5-55-55--2-22-22--4-44-44--7-77-77--4-
E|-2-22-22--5-55-55-----------0-00-00--2-22-22--5-55-55--2-
Comments