White Stripes - Fell In Love With A Girl Chords & Tabs

 

Fell In Love With A Girl Chords & Tabs

White Stripes Chords & Tabs

Version: 4 Type: Tab 2 ratings
1 star 2 stars 3 stars 4 stars 5 stars
comments

Fell In Love With A Girl Tab

   
#----------------------------------PLEASE NOTE---------------------------------#
#This file is the author's own work and represents their interpretation of the #
#song. You may only use this file for private study, scholarship, or research. #
#------------------------------------------------------------------------------#

Artist / Band - The White Stripes
Album - White Blood Cells
Track Number - 04
Track Name - Fell In Love With A Girl
Tabber - Keith Fusco
Email Address - keith_fusco_the_offspring_fan@hotmail.com
Web Page - http://koro.20m.com

Ok. This is a very good White Stripes song so I decided to tab it out. 
Please email your comments and any corrections, Or if you think any of 
the lyrics are wrong, Or if you want to request A tab email me and I'll
try my best to tab it and email it to you as soon as possible.

Legend:

p - Pull Off
* - Let Ring

Standard Tuning (E,A,D,G,B,E)

Intro / Verse

E |--------------------------------------------|
B |--------------------------------------------|
G |-4-4-4-4-4-------------7-7-7-7-7------------|
D |-4-4-4-4-4--7-7-7-7-7--7-7-7-7-7--2-2-2-2-2-|
A |-2-2-2-2-2--7-7-7-7-7--5-5-5-5-5--2-2-2-2-2-|
E |------------5-5-5-5-5-------------0-0-0-0-0-|

E |--------------------------------------------|
B |--------------------------------------------|
G |-4-4-4-4-4-------------7-7-7-7-7------------|
D |-4-4-4-4-4--7-7-7-7-7--7-7-7-7-7--2-2-2-2-2-|
A |-2-2-2-2-2--7-7-7-7-7--5-5-5-5-5--2-2-2-2-2-|
E |------------5-5-5-5-5-------------0-0-0-0-0-|

E |--------------------------------------------|
B |--------------------------------------------|
G |-4-4-4-4-4-------------7-7-7-7-7------------|
D |-4-4-4-4-4--7-7-7-7-7--7-7-7-7-7--2-2-2-2-2-|
A |-2-2-2-2-2--7-7-7-7-7--5-5-5-5-5--2-2-2-2-2-|
E |------------5-5-5-5-5-------------0-0-0-0-0-|

Chorus

E |----------------------------------------------------------------------|
B |----------------------------------------------------------------------|
G |-----------------------7-7-7-7-7-----------------------------------7p-|
D |-4-4-4-4-4--7-7-7-7-7--7-7-7-7-7--2-2-2-2-2--4-4-4-4-4--7-7-7-7-7--7p-|
A |-4-4-4-4-4--7-7-7-7-7--5-5-5-5-5--2-2-2-2-2--4-4-4-4-4--7-7-7-7-7--5p-|
E |-2-2-2-2-2--5-5-5-5-5-------------0-0-0-0-0--2-2-2-2-2--5-5-5-5-5-----|

Verse

E |--------------------------------------------|
B |--------------------------------------------|
G |-4-4-4-4-4-------------7-7-7-7-7------------|
D |-4-4-4-4-4--7-7-7-7-7--7-7-7-7-7--2-2-2-2-2-|
A |-2-2-2-2-2--7-7-7-7-7--5-5-5-5-5--2-2-2-2-2-|
E |------------5-5-5-5-5-------------0-0-0-0-0-|

E |--------------------------------------------|
B |--------------------------------------------|
G |-4-4-4-4-4-------------7-7-7-7-7------------|
D |-4-4-4-4-4--7-7-7-7-7--7-7-7-7-7--2-2-2-2-2-|
A |-2-2-2-2-2--7-7-7-7-7--5-5-5-5-5--2-2-2-2-2-|
E |------------5-5-5-5-5-------------0-0-0-0-0-|

Chorus
[ Tab from: http://www.guitartabs.cc/tabs/w/white_stripes/fell_in_love_with_a_girl_tab_ver_4.html ]
E |----------------------------------------------------------------------|
B |----------------------------------------------------------------------|
G |-----------------------7-7-7-7-7-----------------------------------7p-|
D |-4-4-4-4-4--7-7-7-7-7--7-7-7-7-7--2-2-2-2-2--4-4-4-4-4--7-7-7-7-7--7p-|
A |-4-4-4-4-4--7-7-7-7-7--5-5-5-5-5--2-2-2-2-2--4-4-4-4-4--7-7-7-7-7--5p-|
E |-2-2-2-2-2--5-5-5-5-5-------------0-0-0-0-0--2-2-2-2-2--5-5-5-5-5-----|

Bridge

E |--------------------------------------------|
B |--------------------------------------------|
G |-4-4-4-4-4-------------7-7-7-7-7------------|
D |-4-4-4-4-4--7-7-7-7-7--7-7-7-7-7--2-2-2-2-2-|
A |-2-2-2-2-2--7-7-7-7-7--5-5-5-5-5--2-2-2-2-2-|
E |------------5-5-5-5-5-------------0-0-0-0-0-|

E |--------------------------------------------|
B |--------------------------------------------|
G |-4-4-4-4-4-------------7-7-7-7-7------------|
D |-4-4-4-4-4--7-7-7-7-7--7-7-7-7-7--2-2-2-2-2-|
A |-2-2-2-2-2--7-7-7-7-7--5-5-5-5-5--2-2-2-2-2-|
E |------------5-5-5-5-5-------------0-0-0-0-0-|

Chorus

E |----------------------------------------------------------------------|
B |----------------------------------------------------------------------|
G |-----------------------7-7-7-7-7-----------------------------------7p-|
D |-4-4-4-4-4--7-7-7-7-7--7-7-7-7-7--2-2-2-2-2--4-4-4-4-4--7-7-7-7-7--7p-|
A |-4-4-4-4-4--7-7-7-7-7--5-5-5-5-5--2-2-2-2-2--4-4-4-4-4--7-7-7-7-7--5p-|
E |-2-2-2-2-2--5-5-5-5-5-------------0-0-0-0-0--2-2-2-2-2--5-5-5-5-5-----|

Verse

E |--------------------------------------------|
B |--------------------------------------------|
G |-4-4-4-4-4-------------7-7-7-7-7------------|
D |-4-4-4-4-4--7-7-7-7-7--7-7-7-7-7--2-2-2-2-2-|
A |-2-2-2-2-2--7-7-7-7-7--5-5-5-5-5--2-2-2-2-2-|
E |------------5-5-5-5-5-------------0-0-0-0-0-|

E |--------------------------------------------|
B |--------------------------------------------|
G |-4-4-4-4-4-------------7-7-7-7-7------------|
D |-4-4-4-4-4--7-7-7-7-7--7-7-7-7-7--2-2-2-2-2-|
A |-2-2-2-2-2--7-7-7-7-7--5-5-5-5-5--2-2-2-2-2-|
E |------------5-5-5-5-5-------------0-0-0-0-0-|

Chorus

E |----------------------------------------------------------------------|
B |----------------------------------------------------------------------|
G |-----------------------7-7-7-7-7-----------------------------------7p-|
D |-4-4-4-4-4--7-7-7-7-7--7-7-7-7-7--2-2-2-2-2--4-4-4-4-4--7-7-7-7-7--7p-|
A |-4-4-4-4-4--7-7-7-7-7--5-5-5-5-5--2-2-2-2-2--4-4-4-4-4--7-7-7-7-7--5p-|
E |-2-2-2-2-2--5-5-5-5-5-------------0-0-0-0-0--2-2-2-2-2--5-5-5-5-5-----|

Bridge

E |--------------------------------------------|
B |--------------------------------------------|
G |-4-4-4-4-4-------------7-7-7-7-7------------|
D |-4-4-4-4-4--7-7-7-7-7--7-7-7-7-7--2-2-2-2-2-|
A |-2-2-2-2-2--7-7-7-7-7--5-5-5-5-5--2-2-2-2-2-|
E |------------5-5-5-5-5-------------0-0-0-0-0-|

E |--------------------------------------------|
B |--------------------------------------------|
G |-4-4-4-4-4-------------7-7-7-7-7------------|
D |-4-4-4-4-4--7-7-7-7-7--7-7-7-7-7--2-2-2-2-2-|
A |-2-2-2-2-2--7-7-7-7-7--5-5-5-5-5--2-2-2-2-2-|
E |------------5-5-5-5-5-------------0-0-0-0-0-|

Chorus

E |----------------------------------------------------------------------|
B |----------------------------------------------------------------------|
G |-----------------------7-7-7-7-7-----------------------------------7p-|
D |-4-4-4-4-4--7-7-7-7-7--7-7-7-7-7--2-2-2-2-2--4-4-4-4-4--7-7-7-7-7--7p-|
A |-4-4-4-4-4--7-7-7-7-7--5-5-5-5-5--2-2-2-2-2--4-4-4-4-4--7-7-7-7-7--5p-|
E |-2-2-2-2-2--5-5-5-5-5-------------0-0-0-0-0--2-2-2-2-2--5-5-5-5-5-----|

Outro

E |----|
B |----|
G |-7*-|
D |-7*-|
A |-5*-|
E |----|
Comments