White Stripes - Fell In Love With A Girl Chords & Tabs

 

Fell In Love With A Girl Chords & Tabs

White Stripes Chords & Tabs

Version: 3 Type: Tab 0 ratings
1 star 2 stars 3 stars 4 stars 5 stars
comments

Fell In Love With A Girl Tab

   
the white stripes - fell in love with a girl	

standard tuning

chords-B,A,D,E,& F#
[ Tab from: http://www.guitartabs.cc/tabs/w/white_stripes/fell_in_love_with_a_girl_tab_ver_3.html ]
e-2---5---5---0--			
b-2---5---5---0--
g-4---6---7---1--
D-4---7---7---2--
A-2---7---5---2--
E-----5-------0--



e-2---5---5---0
b-2---5---5---0
g-3---6---7---1
D-4---7---7---2	
A-4---7---5---2
E-2---5-------0

Comments