White Stripes - Fell In Love With A Girl Chords & Tabs

 

Fell In Love With A Girl Chords & Tabs

White Stripes Chords & Tabs

Version: 2 Type: Tab 1 rating
1 star 2 stars 3 stars 4 stars 5 stars
comments

Fell In Love With A Girl Tab

G|----------------------------7-7-7-7-7-7-------------
D|--5-5-5-5-5-5--7-7-7-7-7-7--7-7-7-7-7-7-------------
A|--5-5-5-5-5-5--7-7-7-7-7-7--5-5-5-5-5-5--7-7-7-7-7-7
E|--7-7-7-7-7-7--5-5-5-5-5-5---------------7-7-7-7-7-7


Play this 3 times in the beginning and twice in the rest of
the song___________________________________________________________|
[ Tab from: http://www.guitartabs.cc/tabs/w/white_stripes/fell_in_love_with_a_girl_tab_ver_2.html ]
G|----------------------------7-7-7-7-7-7----------------
D|--4-4-4-4-4-4--7-7-7-7-7-7--7-7-7-7-7-7----------------
A|--4-4-4-4-4-4--7-7-7-7-7-7--5-5-5-5-5-5--7-7-7-7-7-7-7-
E|--2-2-2-2-2-2--5-5-5-5-5-5---------------7-7-7-7-7-7-7-

G|-----------------------------
D|--4-4-4-4-4-4--7-7-7-7-7-7--4
A|--4-4-4-4-4-4--7-7-7-7-7-7--4
E|--2-2-2-2-2-2--5-5-5-5-5-5--2




This is an easy and awsome song to play use my tab it is completey
correct Jimbo eMtiE
Comments