White Stripes - Expecting Chords & Tabs

 

Expecting Chords & Tabs

White Stripes Chords & Tabs

Version: 4 Type: Tab 0 ratings
1 star 2 stars 3 stars 4 stars 5 stars
comments

Expecting Tab

-----------------------------------------------------------------
The White Stripes - Expecting
from their album White Blood Cells
-----------------------------------------------------------------
Tabbed by: Shortys99887	
Email: shortys99887@hotmail.com

Tuning: Standard [EADGBe]

e|---------------------------------------------------------------|
B|---------------------------------------------------------------|
G|--5--7-7---10--------------------------------------------------|
D|--5--7-7---10-10-----------------------------------------------|x8
A|--3--5-5---8--10-----------------------------------------------|
E|---------0----8------------------------------------------------|
[ Tab from: http://www.guitartabs.cc/tabs/w/white_stripes/expecting_tab_ver_4.html ]
e|---------------------------------------------------------------|
B|---------------------------------------------------------------|
G|------------5--------------------------------------------------|
D|--5--7-7----5-5------------------------------------------------|x3 
A|--5--7-7----3-5------------------------------------------------|
E|--3--5-5--0---3------------------------------------------------|

e|---------------------------------------------------------------|
B|---------------------------------------------------------------|
G|----------5-----5--5-------------------------------------------|
D|--5--7-7--5--5--5--5-------------------------------------------|Then 
A|--5--7-7--3--5--3--5-------------------------------------------|repeat 
E|--3--5-5-----3-------------------------------------------------|everything

Then after you play everything else twice, play this

Meg: "Can you go get me that..."

e|-------|
B|-------|
G|--2----|
D|--2----|
A|--2----|
E|--0----|

Listen to the song to get the correct timing and such...

Questions? Comments? Corrections? 
Please feel free to e-mail me at Shortys99887@hotmail.com
Comments