White Stripes - Expecting Chords & Tabs

 

Expecting Chords & Tabs

White Stripes Chords & Tabs

Version: 1 Type: Tab 1 rating
1 star 2 stars 3 stars 4 stars 5 stars
comments

Expecting Tab

Song Title: Expecting
Artist: The White Stripes
Tabber: Mitchell_Jman
Date: Nov 6, 2002


Verse 1
[ Tab from: http://www.guitartabs.cc/tabs/w/white_stripes/expecting_tab.html ]
E|------------------------|
B|------------------------|
G|------------7-----------|
D|-7--9-9--x--7-7---------|  
A|-7--9-9--x--5-7---------|
E|-5--7-7--x----5---------|

Verse 2

E|------------------------|
B|------------------------|
G|------------3-----------|
D|-3--5-5--x--3-3---------|
A|-3--5-5--x--1-3---------|
E|-1--3-3--x----1---------|

Feel free to make corrections or email comments... Jman_cichlid@Hotmail.com
Comments