White Stripes - Cannon Chords & Tabs

 

Cannon Chords & Tabs

White Stripes Chords & Tabs

Version: 4 Type: Tab 0 ratings
1 star 2 stars 3 stars 4 stars 5 stars
comments

Cannon Tab

MAIN RIFF

E|---------------------------|
B|---------------------------|
G|---------------------------|
D|---------------------------|
A|-----7---------------------|
E|--0-----7--7--6-6-6--5--3--|


E|-------------------------|
B|-------------------------|
G|-------------------------|
D|-------------------------|
A|-------------------------|
E|--0--3--0--3--0--3--0----|



E|---------------------------|
B|---------------------------|
G|-----9--8--8--7-7-7--6--4--|
D|-----9--9--9--8-8-8--7--5--|
A|-----7--9--9--8-8-8--7--5--|
E|--0-----7--7--6-6-6--5--3--|



E|-------------------------|
B|-------------------------|
G|-------------------------|
D|-------------------------|
A|--2--2--2--2--2--2--2----|
E|--0--3--0--3--0--3--0----|
  Johnny Revalator 
[ Tab from: http://www.guitartabs.cc/tabs/w/white_stripes/cannon_tab_ver_4.html ]
Palm mute
E|---------------------------------|
B|---------------------------------|
G|---------------------------------|
D|--2--2--2--2---------------------|
A|--2--2--2--2----etc-----5--4--2--|
E|--0--0--0--0------------3--2--0--|

SOLO

E|-12~~--10~~--9~~--8~~---|
B|------------------------|
G|------------------------|
D|------------------------|
A|------------------------|
E|------------------------|

E|-12~~--10~~--9~~--8~~---|
B|------------------------|
G|------------------------|
D|------------------------|
A|------------------------|
E|------------------------|

E|-12~~--10~~--9~~--8~~---|
B|------------------------|
G|------------------------|
D|------------------------|
A|------------------------|
E|------------------------|

E|-------------------------|
B|-------------------------|
G|-------------------------|
D|-------------------------|
A|--2--2--2--2--2--2--2----|
E|--0--3--0--3--0--3--0----|

 
 
 
  

Comments