White Stripes - Broken Bricks Chords & Tabs

 

Broken Bricks Chords & Tabs

White Stripes Chords & Tabs

Version: 2 Type: Tab

Broken Bricks Tab

Broken Bricks by the White Stripes.

Tabbed by the one and only danthaman

|---------------------------------|
|---------------------------------|
|---------------------------------|
|--7-7-7-x-10-10-x-12-12-x-10-10--|   X 12
|--7-7-7-x-10-10-x-12-12-x-10-10--|
|--5-5-5-x-8--8--x-10-10-x-8--8---|



|------------------------------------------------|
|------------------------------------------------|
|------------------------------------------------|
|--7-7-x-5-5-x-7-7-x-5-5-x-7-7-x-5-5-x-10-9-8-7--|    X 2
|--7-7-x-5-5-x-7-7-x-5-5-x-7-7-x-5-5-x-10-9-8-7--|
|--5-5-x-3-3-x-5-5-x-3-3-x-5-5-x-3-3-x-8--7-6-5--|


[ Tab from: http://www.guitartabs.cc/tabs/w/white_stripes/broken_bricks_tab_ver_2.html ]
|---------------------------------|
|---------------------------------|
|---------------------------------|
|--7-7-7-x-10-10-x-12-12-x-10-10--|   X 11
|--7-7-7-x-10-10-x-12-12-x-10-10--|
|--5-5-5-x-8--8--x-10-10-x-8--8---|



|-----------------------------------------------|
|-----------------------------------------------|
|-----------------------------------------------|
|--7-7-x-5-5-x-7-7-x-5-5-x-7-7-x-5-5-x-3-4-5-6--|    X 2
|--7-7-x-5-5-x-7-7-x-5-5-x-7-7-x-5-5-x-3-4-5-6--|
|--5-5-x-3-3-x-5-5-x-3-3-x-5-5-x-3-3-x-1-2-3-4--|



|-------------------------------|
|-------------------------------|
|--------------------------9-9--|
|--7-7-7-x-10-10-x-12-12-x-9-9--|   X 8
|--7-7-7-x-10-10-x-12-12-x-7-7--|
|--5-5-5-x-8--8--x-10-10-x------|