White Stripes - Blue Orchid Chords & Tabs

 

Blue Orchid Chords & Tabs

White Stripes Chords & Tabs

Version: 8 Type: Tab 0 ratings
1 star 2 stars 3 stars 4 stars 5 stars
comments

Blue Orchid Tab

   
-------------------------------------------------------------------------------
			     blue orchid - white stripes
-------------------------------------------------------------------------------
Tabbed by:tim676
Email:

Tuning:
[ Tab from: http://www.guitartabs.cc/tabs/w/white_stripes/blue_orchid_tab_ver_8.html ]
e|------------------------------------------------------------------------------|
B|------------------------------------------------------------------------------|
G|------------------------------------------------------------------------------|
D|--------------------------------------3--5------------------------------------|
A|-------------1--------------1--3--5------------------1-----------1------------|
E|----3--1--3-----1--3--1--3-----------------3--1--3------1--1--3-----3--1------|

e|---------------------------------------------------------------------------|
B|---------------------------------------------------------------------------|
G|---------------------------------------------------------------------------|
D|--------------3--3h4h5-----------------------------------------------------|
A|-----1--3--5---------------------------------------------------------------|
E|--3------------------------------------------------------------------------|

| /  slide up
| \  slide down
| h  hammer-on
| p  pull-off
| ~  vibrato
| +  harmonic
| x  Mute note
===============================================================================
Comments