White Stripes - Blue Orchid (intro Riff Chorus) Chords & Tabs

 

Blue Orchid (intro Riff Chorus) Chords & Tabs

White Stripes Chords & Tabs

Version: 1 Type: Tab 1 rating
1 star 2 stars 3 stars 4 stars 5 stars
comments

Blue Orchid (intro Riff Chorus) Tab

#----------------------------------PLEASE NOTE---------------------------------#
#This file is the author's own work and represents their interpretation of the #
#song. You may only use this file for private study, scholarship, or research. #
#------------------------------------------------------------------------------#
The White Stripes - Blue Orchid (intro riff chorus)
I've decided to tab this riff in the lowest octave that it's played in. 
You can transpose it to any other octave, but I think that Jack plays it in this octave with
some sort of pitchshifter/doubler or something. Anyway, here goes...

Intro/Verse Riff:
[ Tab from: http://www.guitartabs.cc/tabs/w/white_stripes/blue_orchid_intro_riff_chorus_tab.html ]
e|----------------------------------------------------------------------------------|
B|----------------------------------------------------------------------------------|
G|----------------------------------------------------------------------------------|
D|------------------------------------------3--5------------------------------------|
A|------------1--------------------1--3--5-----------------------1-----------1------|
E|-3----1--3------1-----3----1--3---------------------3----1--3------1---1-3---3----|


VERSE 1:
(You got a reaction ect)

VERSE 2:
(Somethings better than nothing ect)

Chorus Riff:

e|----------------------------------------------------------------------------------|
B|----------------------------------------------------------------------------------|
G|----------------------------------------------------------------------------------|
D|----------------------------------------------------------------------------------|
A|-------5--3--1--------5--3--1--------5--3--1--------------------------------------|
E|-3--------------1--------------3---------------1--1--1--1--3----------------------|
Comments