White Stripes - Blue Orchid Chords & Tabs

 

Blue Orchid Chords & Tabs

White Stripes Chords & Tabs

Version: 1 Type: Bass Tab 0 ratings
1 star 2 stars 3 stars 4 stars 5 stars
comments

Blue Orchid Bass Tab

|-----------------------|
|-----------------------|
|-----------1-----------|
|--3---1-3----1---------|

|--------------------------|
|--------------------------|
|-----------1-3-5-8-8-10---|
|--3---1-3---------------3-|

|--------------------------|
|--------------------------|
|-----------1--------1-----|
|--3---1-3----1--1-3---3---|
[ Tab from: http://www.guitartabs.cc/tabs/w/white_stripes/blue_orchid_btab.html ]
|--------------------------|
|--------------------------|
|-----------1-3-5-8-8-10---|
|------1-3---------------3-|

|--------------------------------|
|--------------------------------|
|--5-3-1---5-3-1---5-3-1---------|
|--------1------3--------1-1-1-13|

|--------------------------------|
|--------------------------------|
|--5-3-1---5-3-1---5-3-1---------|
|--------1------3--------1-1-1-13|


And this you repeat through the whole song! 

Enjoy.

Submitted by Lemonidas
Comments