White Stripes - Black Math Chords & Tabs

 

Black Math Chords & Tabs

White Stripes Chords & Tabs

Version: 7 Type: Tab 0 ratings
1 star 2 stars 3 stars 4 stars 5 stars
comments

Black Math Tab

   
-----------------------------------------------------------------------------
			     Black math(solo) - The white stripes
-----------------------------------------------------------------------------
Tabbed by:ash middleton(ash948)
Email:nirvana9486@aol.com
Black math,from the album,ELEPHANT


Tuning:standard

e|---------------------------------12---------12------12-----|
B|--17pb15--15b---15b---15b---15b-------15b-------15------15-|
G|-----------------------------------------------------------|
D|-----------------------------------------------------------|
A|-----------------------------------------------------------|
E|-----------------------------------------------------------|

e|-------15b--------12----------------------------------------|
B|--15---15----15b------15bp13---20\10---13---15--15b--15--13-|
G|------------------------------------------------------------|
D|------------------------------------------------------------|
A|------------------------------------------------------------|
E|------------------------------------------------------------|

e|--------------------------------12-------------------------|
B|--15b---15--15b--15---15b---15------14---13--15---13--14~--|
G|-----------------------------------------------------------|
D|-----------------------------------------------------------|
A|-----------------------------------------------------------|
E|-----------------------------------------------------------|
[ Tab from: http://www.guitartabs.cc/tabs/w/white_stripes/black_math_tab_ver_7.html ]
e|----17-17------------17-17-17-17-----17-17-17-17---20b--20-|
B|-20-------20b--(20)\-------------20b-----------------------|
G|-----------------------------------------------------------|
D|-----------------------------------------------------------|
A|-----------------------------------------------------------|
E|-----------------------------------------------------------|

e|--20b--20b--17---------------------------------------------|
B|-----------------15------15b---15b--15--13-----13---15~--0-|
G|--------------------------------------------14-------------|
D|---------------------12------------------------------------|
A|-----------------------------------------------------------|
E|-----------------------------------------------------------|

e|---------------------------------------15--------------15--|
B|---------------------------------------15b---15---13~--15b-|
G|---7bb-----------------------------------------------------|
D|-----------------------------------------------------------|
A|----------5-5-5-5-5-5-5-5-5-5-5-5-5------------------------|
E|-----------------------------------------------------------|

e|-----------------------------------------------------------|
B|--15--13b----15b-15-15-13-15-----13b-15-13-15-13-15-13-----|
G|--------------------------------------------------------14-|
D|-----------------------------------------------------------|
A|-----------------------------------------------------------|
E|-----------------------------------------------------------|

e|-----------------------------------------------------------|
B|-----------------------------------------------------------|
G|--14b-14b-14b-14b-14b-14b----------------------------------|
D|-----------------------------------------------------------|
A|-----------------------------------------------------------|
E|-----------------------------------------------------------|

PLEASE RATE

| /  slide up
| \  slide down
| h  hammer-on
| p  pull-off
| ~  vibrato
| +  harmonic
| x  Mute note
=============================================================================
Comments