White Stripes - Astro Chords & Tabs

 

Astro Chords & Tabs

White Stripes Chords & Tabs

Version: 6 Type: Tab 0 ratings
1 star 2 stars 3 stars 4 stars 5 stars
comments

Astro Tab

   
----------------------------------------------------------------------------
                            The White Stripes
                                  Astro

----------------------------------------------------------------------------
     I checked out some of the other tabs, and most of them seemed to be way off. 
this is a very easy song. Thanks to brokenbricks.com for the solo!

Tabbed by: Astro0930
Email: devils38matt@yahoo.com

Tuning: Standard


      |Intro|
e|-------------------|
B|-------------------|
G|-------------------|
D|-2-5-2-5-2-2-5-2-5-| [Repeat 2x]
A|-2-5-2-5-2-2-5-2-5-|
E|-0-3-0-3-0-0-3-0-3-|

   |Verse| [Repeat 3x]
e|---------------------|
B|---------------------|
G|---------------------|
D|-2-5-2-5-2-5-2-5-----|
A|-2-5-2-5-2-5-2-5-----|
E|-0-3-0-3-0-3-0-3-----|

     [Then play this]
e|------------------|
B|------------------|
G|------------------|
D|-7~--9-9-9--7-5-4-|
A|-7~--9-9-9--7-5-4-|
E|-5~--7-7-7--5-3-2-|

 [Repeat Intro Once, Then Verse]

   [Then play this]
e|-------------------------------|------------------|
B|-------------------------------|------------------|
G|-------------------------------|------------------|
D|-7~--5---2---7~--5--2--7~--5--2|-9~---9-9-9-7-5-4-|
A|-7~--5---2---7~--5--2--7~--5--2|-9~---9-9-9-7-5-4-|
E|-5~--3---0---5~--3--0--5~--3--0|-7~---7-7-7-5-3-2-|

  [Repeat Intro Once, Then Verse]

e|---------------|
B|---------------|
G|---------------|
D|-7~--5--7--5-5-|
A|-7~--5--7--5-5-|
E|-5~--3--5--3-3-|


   |Interlude|

   [Repeat 4x]
e|-------------------|
B|-------------------|
G|-------------------|
D|-2-5-2-5-2-5-5-5---|
A|-2-5-2-5-2-5-5-5---|
E|-0-3-0-3-0-3-3-3---|
[ Tab from: http://www.guitartabs.cc/tabs/w/white_stripes/astro_tab_ver_6.html ]
e|------------------------------|---------------|
B|------------------------------|---------------|
G|------------------------------|---------------|
D|-7~-5--2--7~--5--2--7~--5--2--|9~-9-9-9-7-5-4-|
A|-7~-5--2--7~--5--2--7~--5--2--|9~-9-9-9-7-5-4-|
E|-5~-3--0--5~--3--0--5~--3--0--|7~-7-7-7-5-3-2-|


  (Repeat 6x)
e|-----------|------------|
B|-----------|------------|
G|-----------|------------|
D|---------5-|---------2--|
A|-2-2-2-2-5-|-2-2-2-2-2--|
E|-0-0-0-0-3-|-0-0-0-0-0--|


  |Bridge|
                              
e|---3b---0---0-3-0---0---------------------------|
B|----------3-------3-0-3b---2b-------0--0--0--0--|
G|-2----2-----------2---3b---2b--0----0--0--0--0--|
D|-2-------------------(3b)-(2b)-0-2--------------|
A|-0----------------------------------------------|
E|------------------------------------------------|

     [Repeat 4x]
e|--------------------|
B|--------------------|
G|--------------------|
D|-2-5-2-5-5-2-2-5-5--|
A|-2-5-2-5-5-2-2-5-5--|
E|-0-3-0-3-3-0-0-3-3--|




   |Solo|

e|-------------------------------------------------------------------------|
B|-10b12-b12-b12-b12-b12-b12-b12-b12-10b12-b12-b12-b12-b12-b12-b12-b12-----|
G|-------------------------------------------------------------------------|
D|-------------------------------------------------------------------------|
A|-------------------------------------------------------------------------|
E|-------------------------------------------------------------------------|

e|------------------------|
B|-10p8-5-5-5-8-8-8-8/18--|
G|------------------------|
D|------------------------|
A|------------------------|
E|------------------------|

   |This is played under the solo. Repeat till the end.|
e|--------------------|
B|--------------------|
G|--------------------|
D|-2-5-2-5-5-2-2-5-5--|
A|-2-5-2-5-5-2-2-5-5--|
E|-0-3-0-3-3-0-0-3-3--|


| /  slide up
| \  slide down
| h  hammer-on
| p  pull-off
| ~  vibrato
| +  harmonic
| x  Mute note
===============================================================================
Comments