White Stripes - Astro Chords & Tabs

 

Astro Chords & Tabs

White Stripes Chords & Tabs

Version: 4 Type: Tab 0 ratings
1 star 2 stars 3 stars 4 stars 5 stars
comments

Astro Tab

Astro by the White Stripes
Tabbed by Alan . C

I thought id do a tab for this since some the other tabs suck so bad that if jack white 
dead he'd be spinning his grave SPINNING!
Its not great but it sounds okay to me

Intro:
E|------------------------------------------------------------------|
B|------------------------------------------------------------------|
G|------------------------------------------------------------------|
D|------------------------------------------------------------------|
A|-3---6---3---6---3---3--6---3---6--------6--3--8---0h6---3--------|
E|-1---4---1---4---1---1--4---1---4--------4--1--6---0-4----1-------|

Do a hammer on from  -0-  to    -6---|
                     -0-         -4--|
[ Tab from: http://www.guitartabs.cc/tabs/w/white_stripes/astro_tab_ver_4.html ]
E|--------------------------------------------------------------------|
B|--------------------------------------------------------------------|
G|--------------------------------------------------------------------|
D|--------------------------------------------------------------------|
A|-3----8---0h-6-----3------------------------------------------------|
E|-1----6---0--4-----1------------------------------------------------|
(if you want you can do a slide from --3---    to   --8---------------|
                                     --6---         --1---------------|

E|---------------------------------------------------------------------------|
B|---------------------------------------------------------------------------|
G|---------------------------------------------------------------------------|
D|---------------------------------------------------------------------------|
A|-3----10----10-10-10----8--6--5---(intro again)----------------------------|
E|-1-----8------8--8--8-----6--4--1------------------------------------------|


Im pretty sure Jack plays it using three strings like

-3---6---3--------|
-3---6---3--------|
-1---4---1--------|
But this is just the way I tabbed it I do it, actually I forgot and cant be bothered 
it in so ill just tell you its better to play like this
Comments