White Stripes - Astro Chords & Tabs

 

Astro Chords & Tabs

White Stripes Chords & Tabs

Version: 3 Type: Tab 0 ratings
1 star 2 stars 3 stars 4 stars 5 stars
comments

Astro Tab

   
DARK_CLOUD_36@yahoo.com

This is the intro.                   D = down strum

                                     U = Up strum
-----------------------------|
-----------------------------|
-----------------------------|
-2-5-2-5-2-2-5-2-5-----------|
-2-5-2-5-2-2-5-2-5-----------|
-----------------------------|

You repeat that a 2 times

  main riff
-----------------------------|
-----------------------------|
-----------------------------|
-2-5-2-5-2-5-----------------|
-2-5-2-5-2-5-----------------|
-----------------------------|

You repeat the main riff all through the 1st verse
Then you play.....

-----------------------------|
-----------------------------|     riff 1
-----------------------------|
-5-3-0-----------------------|      you play this riff 3 times
-5-3-0-----------------------|
-----------------------------|


then to enter to the 2nd verse you go....

-----------------------------|
-----------------------------|
-----------------------------|
-----------------------------|
-5---5-5--3-1-0--------------|
-5---5-5--3-1-0--------------|

[ Tab from: http://www.guitartabs.cc/tabs/w/white_stripes/astro_tab_ver_3.html ]
then you play the main riff all through the singing parts
then you play ..
-----------------------------|
-----------------------------|
-----------------------------|
-2-5-2-5-5-5-5---------------|  riff 2
-2-5-2-5-5-5-5---------------|
-----------------------------|
       D U D U
all through the 2nd verse


then you go ....
----------------------------|
----------------------------|
----------------------------|
-5---5-5---2-2--------------|
-5---5-5---2-2--------------|
----------------------------|

and play riff 2 all through third verse
and play riff 1 3 times
then play
----------------------------|
----------------------------|
----------------------------|
-5--5-5-3-1-0---------------|
-5--5-5-3-1-0---------------|
----------------------------|

this last verse is muted
---------------------------|
---------------------------|
---------------------------|
-5-5-5-3-7-7-7-------------|      all through the 4th verse
-5-5-5-3-7-7-7-------------|
---------------------------|
then you end it on the 2nd riff


And theres my version of Astro

if you got any questions or comments emial me.
Comments