White Stripes - As Ugly As I Seem Chords & Tabs

 

As Ugly As I Seem Chords & Tabs

White Stripes Chords & Tabs

Version: 2 Type: Tab 0 ratings
1 star 2 stars 3 stars 4 stars 5 stars
comments

As Ugly As I Seem Tab

   
-------------------------------------------------------------------------------
			     As Ugly as I seem - the white stripes
-------------------------------------------------------------------------------
Tabbed by: Kyle Landgraf
Email: klstrider@comcast.net

Okay, here's what I have.  The intro is solid, and the rhythm is good but you need to
work in your own variations occasionally.

Intro
e|---------------------------------------------------------------------------|
B|--3\2-x-x--3-3\2-x-2------------------x-x--3-3\2-x-2----------------------|
G|--2-2--x-x--2-2-2-x-2--0-0-------------x-x--2-2-2-x-2--0-0-----------------|
D|--2-2--x-x--2-2-2-x-2---2----(2)-(2)---x-x--2-2-2-x-2---3----(3)-(3)-------|
A|---------------------------------------------------------------------------|
E|---------------------------------------------------------------------------|

e|---------------------------------------------------------------------------|
B|--x-x--3-3\2-x-0-----------------------------------------------------------|
G|--x-x--2-2-2-x-2--0-0------------------------------------------------------|
D|--x-x--2-2-2-x-2---2--------(play either soft of ghost notes here)---------|
A|---------------2-----------------------------------------------------------|
E|---------------------------------------------------------------------------|
[ Tab from: http://www.guitartabs.cc/tabs/w/white_stripes/as_ugly_as_i_seem_tab_ver_2.html ]
Rhythm/Verses
     I...       am as ugly as I seem...
e|---------------------------------------------------------------------------|
B|----------2-------3\2--0--2--2---------------------------------------------|
G|------2-2---2-----2-2--0--2--2---------------------------------------------|
D|------------------2-2--0--2--2---------------------------------------------|
A|---------------------------------------------------------------------------|
E|---------------------------------------------------------------------------|
     Worse than all your dreams
e|--------------------------4------------------------------------------------|
B|----3\2-------------------0------------------------------------------------|
G|----2-2------0-0----------0----------2----2--------------------------------|
D|----2-2------0-0----------0------2-2---2-2---------------------------------|
A|--------------------------2------------------------------------------------|
E|--------------------------3------------------------------------------------|
       Could ever make me out to be
e|---------------------------------------------------------------------------|
B|-----------------2---------------------------------------------------------|
G|----2------------2---------------------------------------------------------|
D|-2-2-------------2---------------------------------------------------------|
A|---------------------------------------------------------------------------|
E|---------------------------------------------------------------------------|


|------------------------|------------------------|
|------------------------|------------------------|
|-------0--------0-----0-|-------0----------------|
|----2--------4-----4----|----2--------4----------| Play twice
|-3--------5-------------|-3--------5-----3--2--0-| 
|------------------------|------------------------|






| /  slide up
| \  slide down
| h  hammer-on
| p  pull-off
| ~  vibrato
| +  harmonic
| x  Mute note
===============================================================================
Comments