White Stripes - Apple Blossom Chords & Tabs

 

Apple Blossom Chords & Tabs

White Stripes Chords & Tabs

Version: 2 Type: Tab 0 ratings
1 star 2 stars 3 stars 4 stars 5 stars
comments

Apple Blossom Tab

 By Less

I think this solo sounds great, although it is a bit different from the original cd 
Besides, as I heard from the live DVD "Under Blackpool Lights", Jack plays it just like I 
it.
I 'd like to hear any comments for it

Solo:

-----0--0---------------5-5-3-1-0-------0--0---------------------------------------------|
---3--------3-1-0-----------------3---3-------3-1-0----0-0--0-1-1-0----------------------|
--------------------2-----------------------------------2---------------0----------0--2--|
-----------------------------------------------------------------------------2---2-------|
-----------------------------------------------------------------------------------------|
-----------------------------------------------------------------------------------------|

[ Tab from: http://www.guitartabs.cc/tabs/w/white_stripes/apple_blossom_tab_ver_2.html ]
--12--12--10--8-7--5------17--17--15--13-12--10--10--12--12--10--8-7--5---7-7-7h8-8--7--0-0h3--5--|
--------------------------------------------------------------------------------------------------|
--------------------------------------------------------------------------------------------------|
--------------------------------------------------------------------------------------------------|
--------------------------------------------------------------------------------------------------|
--------------------------------------------------------------------------------------------------|

-1212108-7-8-10-8-7---17171513-121010h12-12h101087810-8-7--|
------------------------------------------------------------------------|
------------------------------------------------------------------------|
------------------------------------------------------------------------|
------------------------------------------------------------------------|
------------------------------------------------------------------------|


--7-7-7h335--|
---------------|
---------------|
---------------|
---------------|
---------------|
Comments