White Stripes - Apple Blossom Chords & Tabs

 

Apple Blossom Chords & Tabs

White Stripes Chords & Tabs

Version: 1 Type: Tab 0 ratings
1 star 2 stars 3 stars 4 stars 5 stars
comments

Apple Blossom Tab

   
Tuning: Standard (E A D G B E)


i was lookin the other day and i thought the tabs on the site
was not as clear as it could be
and it missed the solo so im goin have a go

Intro:

--------------------------------|
--1--1--1--1--1--1--1--1--1--1--|
--2--2--2--2--0--2--2--2--2--0--|
--2--2--2--2--0--2--2--2--2--0--|
--------------------------------|
--------------------------------|

Verse:

--------------------------------1--1--1--1--1--1--1--1--1--1--|
--1--1--1--1--1--1--1--1--1--1--3--3--3--3--0--3--3--3--3--0--|
--2--2--2--2--0--2--2--2--2--0--2--2--2--2--0--2--2--2--2--0--|
--2--2--2--2--0--2--2--2--2--0--------------------------------|
--------------------------------------------------------------|
--------------------------------------------------------------|
  Hey little apple blossom

-----------------------------------------------------------|
--1--1--1--1--1--1--1--1--1--1--------------1--1--1--1--1--|
--2--2--2--2--0--2--2--2--2--0--------------2--2--2--2--0--|
--2--2--2--2--0--2--2--2--2--0--2--2--------2--2--2--2--0--|
--------------------------------2--2--2--2-----------------|
--------------------------------------3--3-----------------|
   All the ones....

--------------------------------1--1--1--1--1--1--1--1--1--1--|
--1--1--1--1--1--1--1--1--1--1--3--3--3--3--0--3--3--3--3--0--|
--2--2--2--2--0--2--2--2--2--0--2--2--2--2--0--2--2--2--2--0--|
--2--2--2--2--0--2--2--2--2--0--------------------------------|
--------------------------------------------------------------|
--------------------------------------------------------------|
  Come and Tell me what.....

-----------------------------------------------------------|
--1--1--1--1--1--1--1--1--1--1--------------1--1--1--1--1--|
--2--2--2--2--0--2--2--2--2--0--------------2--2--2--2--0--|
--2--2--2--2--0--2--2--2--2--0--2--2--------2--2--2--2--0--|
--------------------------------2--2--2--2-----------------|
--------------------------------------3--3-----------------|
   A little light is blinking


Chorus:

---1-----1--------------0-----------------------------0--------|
---3--3-----3-----1--1-----1-----------0--------1--1-----1-----|
---2-----------2--2-----------2-----------0-----2-----------2--|
------------------2--------------2--2--------2--2--------------|
---------------------------------2-----------------------------|
---------------------------------------------------------------|
  Lots of girls....

[ Tab from: http://www.guitartabs.cc/tabs/w/white_stripes/apple_blossom_tab.html ]
---1-----1--------------0---------------------------|
---3--3-----3-----1--1-----1------------------------|
---2-----------2--2-----------2---------------------|
------------------2--------------2----2-2-2-2-------|
---------------------------------2----2-2-2-2-2--2--|
----------------------------------------------3--3--|
   You've been looking....

Solo:

-----0--0---------------5-5-3-1-0-------0--0-------------------------------|
---3--------3-1-0-----------------3---3-------3-1-0----0-0--0-1-1-0--------|
------------------2---------------------------------2------------------0---|
---------------------------------------------------------------------2-----|
---------------------------------------------------------------------------|
---------------------------------------------------------------------------|


-----0--0---------------5-5-3-1-0-----------------------------------------------------|
---3--------3-1-0-----------------3---3p5-5-3-3-1-1-0-0--3-3-1-1-0-0-----0--0-0-------|
------------------2--------------------------------------------------2-2--------0-0-2-|
--------------------------------------------------------------------------------------|
--------------------------------------------------------------------------------------|
--------------------------------------------------------------------------------------|


Chorus:

---1-----1--------------0-----------------------------0--------|
---3--3-----3-----1--1-----1-----------0--------1--1-----1-----|
---2-----------2--2-----------2-----------0-----2-----------2--|
------------------2--------------2--2--------2--2--------------|
---------------------------------2-----------------------------|
---------------------------------------------------------------|
  Lots of girls....


---1-----1--------------0---------------------------|
---3--3-----3-----1--1-----1------------------------|
---2-----------2--2-----------2---------------------|
------------------2--------------2----2-2-2-2-------|
---------------------------------2----2-2-2-2-2--2--|
----------------------------------------------3--3--|
   You've been looking....


Verse:

--------------------------------1--1--1--1--1--1--1--1--1--1--|
--1--1--1--1--1--1--1--1--1--1--3--3--3--3--0--3--3--3--3--0--|
--2--2--2--2--0--2--2--2--2--0--2--2--2--2--0--2--2--2--2--0--|
--2--2--2--2--0--2--2--2--2--0--------------------------------|
--------------------------------------------------------------|
--------------------------------------------------------------|
Come and sit with me.......


------------------------------------------------------------------------------------|
--1--1--1--1--1--1--1--1--1--1--------------1-----------1-----------1-----1-1-1-2---|
--2--2--2--2--0--2--2--2--2--0--------------2-----------2-----------2-----2-2-2-2---|
--2--2--2--2--0--2--2--2--2--0--2--2--------2-----2-----2-----2-----2-----2-2-2-2---|
--------------------------------2--2--2--2--------2--2--------2--2------------------|
--------------------------------------3--3-----------3-----------3------------------|
   Put your troubles......


the solo might not be prefect but i could only get it this good
Comments