White Stripes - A Martyr For My Love For You Chords & Tabs

 

A Martyr For My Love For You Chords & Tabs

White Stripes Chords & Tabs

Version: 1 Type: Tab 0 ratings
1 star 2 stars 3 stars 4 stars 5 stars
comments

A Martyr For My Love For You Tab

   
A Martyr For My Love For You by The White Stripes

Verse:

e|--------------------------|
B|---------------0--or 1----|
G|---2-4-5--4-2-0-----------|
D|--2-----------------------| almost all the verse
A|--------------------------|
E|--------------------------|

e|----------------|
B|----------------|
G|-2-4-5-4-2-4-0--|
D|----------------|(sometimes Jack plays that)
A|----------------|
E|----------------|


Chorus:

e|-------------------------------|
B|-------------------------------|
G|-7-7-----------5-5-------------|
D|-7-7----7-7----5-5----5-5------|
A|-5-5----7-7----3-3----5-5------|
E|--------5-5-----------3-3------|

Verse:

e|--------------------------|
B|---------------0--or 1----|
G|---2-4-5--4-2-0-----------|
D|--2-----------------------| all the verse
A|--------------------------|
E|--------------------------|

e|----------------|
B|----------------|
G|-2-4-5-4-2-4-0--|
D|----------------|(SOMETIMES)
A|----------------|
E|----------------|
[ Tab from: http://www.guitartabs.cc/tabs/w/white_stripes/a_martyr_for_my_love_for_you_tab.html ]
e|----------------------------------------------|
B|----------------------------------------------|
G|----------------------------------------------|
D|--7-7--9-10-9-7-5--7---7-7--9-10-9-7-5--7-----|
A|--7-7--9-10-9-7-5--7---7-7--9-10-9-7-5--7-----|
E|--5-5--7-8--7-5-3--5---5-5--7-8--7-5-3--5-----|

e|--------------------------|
B|---------------0--or 1----|
G|---2-4-5--4-2-0-----------|
D|--2-----------------------| all the verse
A|--------------------------|
E|--------------------------|

Chorus:

e|-------------------------------|
B|-------------------------------|
G|-7-7-----------5-5-------------|
D|-7-7----7-7----5-5----5-5------|
A|-5-5----7-7----3-3----5-5------|
E|--------5-5-----------3-3------|

Verse:

e|--------------------------|
B|---------------0--or 1----|
G|---2-4-5--4-2-0-----------|
D|--2-----------------------| all the verse
A|--------------------------|
E|--------------------------|

e|----------------|
B|----------------|
G|-2-4-5-4-2-4-0--|
D|----------------|(SOMETIMES)
A|----------------|
E|----------------|

Finish with D (xx0232)









Comments