White Stripes - A Boys Best Friend Chords & Tabs

 

A Boys Best Friend Chords & Tabs

White Stripes Chords & Tabs

Version: 2 Type: Tab 0 ratings
1 star 2 stars 3 stars 4 stars 5 stars
comments

A Boys Best Friend Tab

   
A Boys Best Friend - Thw White Stripes

Chords/ D: 000000/ F: 333333/ G: 555555/ A: 777777			
 
Intro (Play 3 Times)
 D|----0-----0-----0-----------------------|
 A|----------------------------------------|
F#|----------------------3/5--5--5/7--7\3--|
 D|----------------------3/5--5--5/7--7\3--|
 A|-------------------0--3/5--5--5/7--7\3--|
 D|-0-----0-----0--------------------------|

Verse:
D                              F/G G/A  D
I just don't fit in this place
                                   F/G G/A  D
Their thoughts cast me out of here
                                F/G G/A  D
Their home has run out of space
                              F/G G/A A/F
My mind's already out of here 
                            /G
Won't you come along, dear?
         /A           D
Won't you come along?

Verse 2:
Words that are spoke alone
Phrases you will never hear 
Empty rooms and a telephone
That I will never use, never fear
I am all alone, dear
I am all alone
[ Tab from: http://www.guitartabs.cc/tabs/w/white_stripes/a_boys_best_friend_tab_ver_2.html ]
Solo is Intro then
|---(Play 2 Times)--|---(Play 2 Times)--|------------------------------|
|-------------------|-------------------|------------------------------|
|--12-12-12-12\0-0--|--10-10-10-10\0-0--|--3-3-3-3-3-3-5-5-5-5-5-5--0--|
|--12-12-12-12\0-0--|--10-10-10-10\0-0--|--3-3-3-3-3-3-5-5-5-5-5-5--0--|
|--12-12-12-12\0-0--|--10-10-10-10\0-0--|--3-3-3-3-3-3-5-5-5-5-5-5--0--|
|-------------------|-------------------|------------------------------|

|--------12-----------------------------|
|--10/12----12----10/12-10/12-10/12-----|
|--------------12-------------------12--|
|---------------------------------------|
|---------------------------------------|
|---------------------------------------|

|---(Play 2 Times)--|---(Play 2 Times)--|------------------------------|
|-------------------|-------------------|------------------------------|
|--12-12-12-12\0-0--|--10-10-10-10\0-0--|--3-3-3-3-3-3-5-5-5-5-5-5--0--|
|--12-12-12-12\0-0--|--10-10-10-10\0-0--|--3-3-3-3-3-3-5-5-5-5-5-5--0--|
|--12-12-12-12\0-0--|--10-10-10-10\0-0--|--3-3-3-3-3-3-5-5-5-5-5-5--0--|
|-------------------|-------------------|------------------------------|

D (Played 2 Times)

F/G G/A D

Verse 3:
My dogs come sit next to me
A pack of dogs and cigarettes
My only friends speak no words to me
But they look at me and they don't forget
That a boy's best friend
          /D N.C.
Is his mother or whatever has become his pet
Comments