White Lion - When The Children Cry Chords & Tabs

 

When The Children Cry Chords & Tabs

White Lion Chords & Tabs

Version: 5 Type: Tab 0 ratings
1 star 2 stars 3 stars 4 stars 5 stars
comments

When The Children Cry Tab

When the children cry intro:


E----12-------12-------10-------8---7---10-------8-------7-------3---2---
B-------0---0----0---0----0---0---0---0----0---0---0---0---0---0---0---0-
G---------0--------0--------0----------------0-------0-------0-----------
D------------------------------------------------------------------------
A------------------------------------------------------------------------
E------------------------------------------------------------------------


E----0-------12-------10-------8---7---10-------8-------7----------------
B------0---0----0---0----0---0---0---0----0---0---0---0---0---0---0--3---
G--------0--------0--------0----------------0-------0-------0-----0--4---
D------------------------------------------------------------------------
A------------------------------------------------------------------------
E------------------------------------------------------------------------

[ Tab from: http://www.guitartabs.cc/tabs/w/white_lion/when_the_children_cry_tab_ver_5.html ]
E---------------------------2-------0---------0--------------------------
B--------------0------3-------3-----1-----1h3-----1----------------------
G----------0------------4-------4---0---------------0--------------------
D------4-----4------------4-------------2-------------2------------------
A--------2----------2-----------------3----------------------------------
E----0------------------------------------------3--------3-2-0-----------


E---------------------------2-------0-----------0--2-----2h32p0----5-----
B--------------0------3-------3-----1-------1h3----3-3-----------3---7---
G----------0------------4-------4---0-----0--------2---2---------------7-
D------4-----4------------4-------------2--------------------------------
A--------2----------2----------------------------------------------------
E----0-------------------------------------------------------------------


E----10------------------------------------------------------------------
B----10------------------------------------------------------------------
G--------7#--------------------------------------------------------------
D--------7#--------------------------------------------------------------
A------------------------------------------------------------------------
E------------------------------------------------------------------------
Comments