White Lion - When The Children Cry Chords & Tabs

 

When The Children Cry Chords & Tabs

White Lion Chords & Tabs

Version: 1 Type: Tab 1 rating
1 star 2 stars 3 stars 4 stars 5 stars
comments

When The Children Cry Tab

WHITE.TAB

This TAB transcription was created using TAB MASTER version 1.0
If you enjoy using this program, please consider telling the author
about it: Ofir Zwebner, e-mail: ofirz1@ccsg.tau.ac.il
                    snail-mail: Ehoud 10, Tel Aviv, 69936, Israel

This program is freeware, but it took me some work to make it, so
your financial contribution is welcome.

--------------------------------------------------------------------


   +    +   +    +      +   +   +   +     +    +   +   +     +   +   +   +

e:-12-------12-------|-10-------8---7---|-10-------8-------|-7-------3---2---|
B:----0---0----0---0-|----0---0---0---0-|----0---0---0---0-|---0---0---0---0-|
G:------0--------0---|------0-----------|------0-------0---|-----0-----------|
D:-------------------|------------------|------------------|-----------------|
A:-------------------|------------------|------------------|-----------------|
E:-0-----------------|------------------|-0----------------|---------3---2---|



   +   +   +    +     +    +   +   +     +    +   +   +     +   +   +   +

e:-0-------12-------|-10-------8---7---|-10-------8-------|-7---------------|
B:---0---0----0---0-|----0---0---0---0-|----0---0---0---0-|---0-----0---3---|
G:-----0--------0---|------0-----------|------0-------0---|-----0---0---2---|
D:------------------|------------------|------------------|-----------------|
A:------------------|------------------|------------------|-----------------|
E:-0----------------|------------------|-0----------------|---------3---2---|



   +   +   +   +     +   +   +   +     +   +   +   +     +   +   +   +

e:-0---------------|---------2-------|-------------0---|-----------------|
B:-------------0---|---3-------3-----|-1-------1h3---3-|---3-------------|
G:---------0-------|-----4-------4---|---0---0---------|-----0-----------|
D:-------4---4-----|-------4---------|-----2-----------|-------0---0---0-|
A:-----2-----------|-2---------------|-3---------------|-----------------|
E:-0---------------|-----------------|-----------------|-3-------3---2---|


                                                         
   +   +   +   +     +   +   +   +     +    +   +   +

e:-----------------|---------2-------|-x------------0---|
B:-------------0---|---3-------3-----|-1^-------3-------|
G:---------0-------|-----4-------4---|-0^-0---0---------|
D:-------4---4-----|-------4-------0-|-2^---2-----------|
A:-----2-----------|-2---------------|-3^---------------|
E:-0---------------|-----------------|-x----------------|


                                          rhy-1
   free time                              +   +   +   +         +   +   +   +

e:-2-------2h3p2p0-------5------10-----||---------------------|-----------------|
B:---3---3---------3-s-7---7----10--7#-||-0-------0-1-0h1p0---|-----3-------3---|
G:-----2---------------------7------7#-||---0---0-----------0-|---2---2---2---0-|
D:-0--------------------------------7#-||-----0---------------|-0-------0-------|
A:-------------------------------------||---------------------|-----------------|
E:-------------------------------------||-3-------------------|-----------------|


                                       fill-5                             
   +   +   +   +     +   +   +   +     +   +   +   +     +   +   +   +

e:-----------------|---------2-------|-------------0---|-----------------|
B:-----------------|---3-------3-----|-1-------1h3-----|---3-------------|
G:-------0-2-0-----|-----4-------4---|---0---0---------|-----0-----------|
D:---2-------------|-------4---------|-----2-----------|-------0---0---0-|
A:-----2-------2s4-|-2---------------|-3---------------|-----------------|
E:-0---------------|-----------------|-----------------|-3-------3---2---|


                     fill-1                rhy-2
   +   +   +   +     +   +   +       +     +   +   +   +     +   +   +   +
[ Tab from: http://www.guitartabs.cc/tabs/w/white_lion/when_the_children_cry_tab.html ]
e:-----------------|-2-------2h3p2p0-----|-0-------0-------|---------2-------|
B:-------------0---|---3---3---------3---|---1---1---1-----|---3-------3-----|
G:---------0-------|-----2---------------|-----0-------0---|-----4-------4---|
D:-------4---4-----|-0-------------------|-2-------------0-|-------4-------4-|
A:-----2-----------|---------------------|-----------------|-2---------------|
E:-0---------------|---------------------|-----------------|-----------------|


                                       fill-5                             
   +   +   +   +     +   +   +   +     +   +   +   +     +   +   +   +

e:-----------------|---------2-------|-------------0---|-----------------|
B:-------------0---|---3-------3-----|-1-------1h3-----|---3-------------|
G:---------0-------|-----4-------4---|---0---0---------|-----0-----------|
D:-------4---4-----|-------4-------0-|-----2-----------|-------0---0---0-|
A:-----2-----------|-2---------------|-3---------------|-----------------|
E:-0---------------|-----------------|-----------------|-3-------3---2---|


                     fill-1                              rhy-3
   +   +   +   +     +   +   +   +     +   +   +   +     +   +   +   +

e:-----------------|-2-------3-------|-2---------------|-----------------|
B:-------------0---|---3---3---3---2-|-----------------|-------------0---|
G:---------0-------|-----2-------2---|-----------------|---------0-------|
D:-------4---4-----|-0---------------|-----------------|-------4---4-----|
A:-----2-----------|-----------------|-----------------|-----2-----------|
E:-0---------------|-----------------|-----------------|-0---------------|


                                       fill-2
   +   +   +   +     +   +   +   +     +   +   +   +     +   +   +   +

e:---------2-------|-------------0---|-----------------|-----------------|
B:---3-------3-----|-1---1---3-----3-|-----3-----------|-------------0---|
G:-----4-------4---|---0---0---0-----|---0---0---------|---------0-------|
D:-------4-------0-|-----------------|-----------0---0-|-------4---4-----|
A:-2---------------|-3---------------|-----------------|-----2-----------|
E:-----------------|-----------------|-3-------3---2---|-0---------------|


                     fill ending part  fill-3-4
   +   +   +   +     +   +   +   +     +   +   +       +     +   +    +    +

e:---------2-------|-------------0---|---2-----2h3p2p0-----|-5--------10-------|
B:---3-------3-----|-1---1---3-------|-----3-----------3s7-|---7------10-------|
G:-----4-------4---|---0---0---0-----|-------2-------------|-----7s11----------|
D:-------4-------0-|-----------------|-0-------------------|-------------------|
A:-2---------------|-3---------------|---------------------|-------------------|
E:-----------------|-----------------|---------------------|-------------------|


  go to rhy-1    fill-1            fill-2            fill-3           
                 +   +   +   +     +   +   +   +     +   +   +   +

e:-------------|-2-------3p2-----|-----------------|-2-------3-------|
B:-------------|---3---3-----3---|---3-------------|---3---3---3---3-|
G:-------------|-----2-----------|-----0-----------|-----2-------2---|
D:-------------|-0---------------|-------0---0---0-|-0---------------|
A:-------------|-----------------|-----------------|-----------------|
E:-------------|-----------------|-3-------3---2---|-----------------|


                     fill-4            fill-5             fill ending part
   +   +   +   +     +   +   +   +     +    +   +   +     +   +   +   +

e:-2-------3p2-----|-2---------------|-x------------0---|-------------0---|
B:---3---3-----3---|---3---3---------|-1^-------1h3-----|-1-------3-------|
G:-----2---------2-|-----2-----------|-0^-0---0---------|---0---0---------|
D:-----------------|-0---------0---0-|-2^---2-----------|-----2-----------|
A:-----------------|-----------------|-3^---------------|-3---------------|
E:-----------------|---------3---2---|-x----------------|-----------------|
                                     "play one time in solo only"

             free time


e:-2-------2h3p2p0-------5------10-----|
B:---3---3---------3-s-7---7----10--7#-|
G:-----2---------------------7------7#-|
D:-0--------------------------------7#-|
A:-------------------------------------|
E:-------------------------------------|


Comments