White Lion - Wait Chords & Tabs

 

Wait Chords & Tabs

White Lion Chords & Tabs

Version: 2 Type: Tab 0 ratings
1 star 2 stars 3 stars 4 stars 5 stars
comments

Wait Tab

WHITE LION  -  WAIT (intro & outro)         
from the Atlantic album  PRIDE


INTRO  (with fingers)
=====
 Wait,            wait,           I never had a ....
E|5-----5-----5---|5-----5-----5---|3-----3-----3---|3-----3-----3---|
B|--7-----7-----7-|--5-----5-----5-|--5-----5-----5-|--3-----3-----3-|
G|----7-----7-----|----6-----6-----|----5-----5-----|----4-----4-----|
D|----------------|----------------|----------------|----------------|
A|0---------------|0---------------|0---------------|0---------------|
E|----------------|----------------|----------------|----------------|
 Now I only wanna say I love ...
E|-1-------1-----1----|-1-------1----------||    ==================
B|----3------3-----3--|----3---------------||    **Three bar rest**
G|-------3-----3------|------3-------------||    ==================
D|--------------------|--------------------||
A|-0------------------|--------------------||
E|--------------------|--------------------||

(with pick)
 Wait,            just a moment    ...
E|----------------|----------------|----------------|------0---------|
B|------5---------|5-------5-------|------3---------|3-------3-------|
G|----6---6-------|--0---0---0-----|--2-----2-------|--2-------2-----|
D|--7-------7-----|----7-------7\5-|----4-----3-----|----3-------3---|
A|0---------------|----------------|0---------------|----------------|
E|----------------|----------------|----------------|----------------|
[ Tab from: http://www.guitartabs.cc/tabs/w/white_lion/wait_tab_ver_2.html ]
 I   must  know   the     reason   ...
E|----------------|----------------|----------------|------0---------|
B|------5---------|5-------5-------|------3---------|3-------3-------|
G|----6---6-------|--0---0---0-----|--2-----2-------|--2-------2-----|
D|--7-------7-----|----7-------7\5-|----4-----3-----|----3-------3---|
A|0---------------|----------------|0---------------|----------------|
E|----------------|----------------|----------------|----------------|

 Wait,            just a ...
E|----------------|----------------|----------------|------0---------|
B|------5---------|5-------5-------|------3---------|3-------3-------|
G|----6---6-------|--0---0---0-----|--2-----2-------|--2-------2-----|
D|--7-------7-----|----7-------7\5-|----4-----3-----|----3-------3---|
A|0---------------|----------------|0---------------|----------------|
E|----------------|----------------|----------------|----------------|

 I  can  show  you    lovin'  ...
E|----------------|----------------|----------------|------0--------0||
B|------5---------|5-------5-------|------3---------|3-------3------3||
G|----6---6-------|--0---0---0-----|--2-----2-------|--2-------2----2||
D|--7-------7-----|----7-------7\5-|----4-----3-----|----3-------3--3||
A|0---------------|----------------|0---------------|----------------||
E|----------------|----------------|----------------|----------------||


OUTRO
=====
E|--------0-------|--------0-------|--------2-------|--------0-------|
B|------5---5-----|------5---5-----|------3---3-----|------3---3-----|
G|----6-------6---|----0-------0---|----2-------2---|----2-------2---|
D|--7-----------7-|--7-----------7-|--4-----------4-|--3-----------3-|
A|0---------------|0---------------|0---------------|0---------------|
E|----------------|----------------|----------------|----------------|

E|--------0-------|--------0-------|--------2-------|--------0-------||
B|------5---5-----|------5---5-----|------3---3-----|------3---------||
G|----6-------6---|----0-------0---|----2-------2---|----2-----------||
D|--7-----------7-|--7-----------7-|--4-----------4-|--3-------------||
A|0---------------|0---------------|0---------------|0---------------||
E|----------------|----------------|----------------|----------------||
Comments