White Lion - Till Death Do Us Part Chords & Tabs

 

Till Death Do Us Part Chords & Tabs

White Lion Chords & Tabs

Version: 2 Type: Tab

Till Death Do Us Part Tab

Till death do us-part
Whitelion

Tab by: Mark Cesar del Rosario


Hi sa mga bandm8 koh d Rhugdals Band of Masbate City!!! I’m very sure that this tab
is 100% accurate!! Hope na irate nyo to!! Astig tong kanta na to!! RATE PLSSSS………

Comments & suggestions just email me @ friendster!! Invite nyo me!!
qeogre@yahoo.com


Bridge:
e|-----------------------------|--------------------------|
b|-----------------------------|--------------------------|
g|--6----------/-11----13-\-10-|-8-\-6-/11---13-\-10------|
d|--x----------/--x-----x-\--x-|-x-\-x-/-x----x-\--x------|
a|--4----------/--9----11-\--8-|-6-\-4-/-9---11-\--8------|
E|-----------------------------|--------------------------|
	There be good times…		 there be bad…

e|---------------|--/14—-14-16-14-13-14-13----------------|
b|---------------|-------------------------16-----14-13---|
g|--8-6-5-6-8-10-|----------------------------------------|
d|--x-x-x-x-x--x-|----------------------------------------|
a|--6-4-3-4-6--8-|----------------------------------------|
E|---------------|----------------------------------------|

e|--14-16-14-13-14-13-------------------------------------|
b|--------------------16--16\-----------------------------|
g|-----------------------------2~----/5~----/10~----------|
d|--------------------------------------------------------|
a|--------------------------------------------------------|
E|--------------------------------------------------------|


Adlib:

e|--------------------------18\17~--|
b|----------------------------------|
g|--15^---15~--14h15p14^------------|
d|----------------------------------|
a|----------------------------------|
E|----------------------------------|
[ Tab from: http://www.guitartabs.cc/tabs/w/white_lion/till_death_do_us_part_tab_ver_2.html ]
e|----------------------------------------|
b|-----------------10---------------------|
g|---x-10h12p10-12----12-10-12~-10--------|
d|---x-----------------------------12~----|
a|----------------------------------------|
E|----------------------------------------|
e|----------------------------------|
b|----------------------------------|
g|------14-12---12-10---10-8---8-7--|
d|---10-------8-------7------5------|
a|----------------------------------|
E|----------------------------------|

e|---------------------------------------------------|
b|---------------------------------------------------|
g|--11-10-11----11-10-11----11-10-11----11-10-11-15~-|
d|-----------10----------10----------10--------------|
a|---------------------------------------------------|
E|---------------------------------------------------|

e|------------------|-------------17-15-18~--|
b|--10h11p10^---10--|---/15-14-15------------|
g|------------------|------------------------|
d|------------------|------------------------|
a|------------------|------------------------|
E|------------------|------------------------|

e|-15--15-17-18-17---22-20-18---------------|
b|----------------------------18~~~~--------|
g|------------------------------------------|
d|------------------------------------------|
a|------------------------------------------|
E|------------------------------------------|


End!! That’s all!! Enjoy!!


Tablature Legend
----------------
 h   - hammer-on
 p   - pull-off
 ^   - bend
 pb  - pre-bend
 r   - bend release (if no number after the r, then release immediately)
 /\  - slide into or out of (from/to "nowhere")
 s   - legato slide
 S   - shift slide
  - natural harmonic
[n]  - artificial harmonic
n(n) - tapped harmonic
 ~   - vibrato
 tr  - trill
 T   - tap
 TP  - trem. picking
 PM  - palm muting
\n/  - tremolo bar dip; n = amount to dip
 \n  - tremolo bar down
 n/  - tremolo bar up
/n\  - tremolo bar inverted dip
 =   - hold bend; also acts as connecting device for hammers/pulls
 <>  - volume swell (louder/softer)