White Lion - Till Death Do Us Part Chords & Tabs

 

Till Death Do Us Part Chords & Tabs

White Lion Chords & Tabs

Version: 1 Type: Tab 0 ratings
1 star 2 stars 3 stars 4 stars 5 stars
comments

Till Death Do Us Part Tab

   
SongTitle: Till Death Do Us Part
Artist: White Lion
TabbedBy:faolafini
Email:faoey@yahoo.com

INTRO

e|--9----9----9-----10-9--------7---7---7---7---7---7---7-------
B|--10---10---10---------12-10--9---9---9---9---8---8---8-------
G|-----9----9----9----------------9---9---9---9---7---7---7-----
D|--------------------------------------------------------------
A|--------------------------------------------------------------
E|--------------------------------------------------------------


e|--10-9-7-9--5---5-----7---6-----------------------------------
B|------------7---7-----9---7-----------------------------------
G|--------------7---7-------------------------------------------
D|--------------------------------------------------------------
A|--------------------------------------------------------------
E|--------------------------------------------------------------

STANZA
 note: just follow the intro pattern there are just some changes just listen 
to know how it goes...

SOLO
[ Tab from: http://www.guitartabs.cc/tabs/w/white_lion/till_death_do_us_part_tab.html ]
     fb              fb
e|-----------------------------------------------------------------
B|---12^--12--11h12--11^--11------9-7-9-11-9-7-9-7-----------------
G|-------------------------------------------------8-8-------------
D|-----------------------------------------------------------------
A|-----------------------------------------------------------------
E|-----------------------------------------------------------------

   pm....
e|-----------------------------------------------------------------
B|---11-9----9-7---7-5---5-3---3----5/13-12-13----13-12-13---------
G|--------11-----9-----7-----5-----------------12----------12------
D|-----------------------------------------------------------------
A|-----------------------------------------------------------------
E|-----------------------------------------------------------------

                             fb            hb
e|-----------------------------------------------------------------
B|----13-12-13----13-12-13---12^---12h13---12^---12----------------
G|-------------12--------------------------------------------------
D|-----------------------------------------------------------------
A|-----------------------------------------------------------------
E|-----------------------------------------------------------------


e|---12-11-12-18-16-19----------14-16-19-18-21-19-18---------------
B|----------------------/17--17----------------------19^^^^^-------
G|-----------------------------------------------------------------
D|-----------------------------------------------------------------
A|-----------------------------------------------------------------
E|-----------------------------------------------------------------

PEACE MAN!!
Comments