Whiplash - Last Man Alive Chords & Tabs

 

Last Man Alive Chords & Tabs

Whiplash Chords & Tabs

Version: 1 Type: Tab 0 ratings
1 star 2 stars 3 stars 4 stars 5 stars
comments

Last Man Alive Tab

Whiplash - Last Man Alive
Submitted By: Nick S.
EMail: Pantera9560@aol.com
POWER AND PAIN (1985)

If you want to send me an E-mail use the subj. "Last Man Alive tabs" but I must
warn you I probably won't be able to answer your question(s) because I bought
this CD used on EBay and it's in bad condition so I have to send it back. I 
decided to learn a few of the songs that don't skip before I send it back 'cause 
there are no other Whiplash tabs on the entire freakin Internet that I'm aware 
of. I hope this tab is helfpul to you, and I think it will be, but you MUST view it
in full screen.

Riff 1A
G--------------------------------------------------6-5-----
D-----8-0-6/8---4-3-4-3---------8-0-6/8---4-3-4-3--4-3-----
A-----6-0-4/6---2-1-2-1-4-3-----6-0-4/6---2-1-2-1----------
E-000------------------2-1-000------------------------------
[ Tab from: http://www.guitartabs.cc/tabs/w/whiplash/last_man_alive_tab.html ]
Riff 1B
G-------------------------------------------------6-----
D-----8-0-6/8---4-3-4-3---------8-0-6/8---4-3-4-6-4-----
A-----6-0-4/6---2-1-2-1-4-3-----6-0-4/6---2-1-2-4-------
E-000-------------------2-1-000-------------------------

Riff 2
D-4-4-4-4-4-4-4-4-3-3-3-3-3-3-3-3---8--6--8------
A-2-2-2-2-2-2-2-2-1-1-1-1-1-1-1-1---6--4--6------

Riff 2 ending 1
D-4-4-4-4-4-4-4-4--4-4-4-4-3----
A-2-2-2-2-2-2-2-2--2-2-2-2-1----

Riff 2 ending 2
D-4-4-4-4-4-4-4-4--4-4-4-4-3--3-3-3-3-3-3-3-3--4-4-4-4-3--4-4-4-4-4-4-4-4---
A-2-2-2-2-2-2-2-2--2-2-2-2-1--1-1-1-1-1-1-1-1--2-2-2-2-1--2-2-2-2-2-2-2-2---

Song order:
Riff 1A 4x
Riff 2 3x w/ ending 1 once after 3rd time
Riff 1A 3x
Riff 2 3x w/ ending 1 once after 3rd time
Riff 1B once
Riff 1A 8x
Riff 2 3x w/ ending 1 once after 3rd time
Riff 2 3x w/ ending 2 twice after 3rd time
Ending
G-------------------3----
D-4-4-4-3---3-------1----
A-2-2-2-1---1------------

Tony Portaro: Guitar, vocals
Tony Scaglione: Drums
Tony Bono: Bass
Comments