Whind Of Change - In Your Way Chords & Tabs

 

In Your Way Chords & Tabs

Whind Of Change Chords & Tabs

Version: 1 Type: Tab 0 ratings
1 star 2 stars 3 stars 4 stars 5 stars
comments

In Your Way Tab

Artist: Whing of Change
Song: In Your Way
Submited by Bryant Barrera

Intro
E--------------|--------|--------|----------|
B--------------|--2-----|--------|----------|
G------4---3---|----4---|--------|----3---4-|
D----4---4---4-|------4-|------4-|------4---|
A--2-----------|--------|----2---|--2-------|
E--------------|--------|--0-----|----------|

E----------0-----|----------|------------|
B--------0---0---|----------|------------|
G----2---------2-|----1---2-|--4-2-4-2-4-|
D------2---------|------2---|--4-2-4-2-4-|
A--0-------------|--0-------|--2-0-2-0-2-|
E----------------|----------|------------|
[ Tab from: http://www.guitartabs.cc/tabs/w/whind_of_change/in_your_way_tab.html ]
Verse
E-----------------|--------------|
B-----------------|--------------|
G------4---3---4--|------2---1---|
D----4---4---4----|----2---2---2-|
A--2--------------|--0-----------|
E-----------------|--------------|
1.So what can I do     To see it through
  So what can I say    To make it ok

Verse
2.So what can I do     To make it up to you
  So what can I say    To make you stay

Chorus
E------------------------|----------|
B------------------------|----------|
G--4-2-4-2-4-------------|--2-------|
D--4-2-4-2-4-------------|--2-------|
A--2-0-2-0-2-------------|--0-------|
E------------------------|----------|
             It doesn’t matter    What I do
             It doesn’t matter    What I say

E-----------------|--------------|
B-----------------|--------------|
G--9------------6-|--4------2-4-2|
D--9------------6-|--4------2-4-2|
A--7------------4-|--2------0-2-0|
E-----------------|--------------|
   I will only be      I your way


3.So what can I do     To show I love you
  So What can I say    To make it through the day

Chorus
Comments