Whind Of Change - Away Chords & Tabs

 

Away Chords & Tabs

Whind Of Change Chords & Tabs

Version: 1 Type: Tab 0 ratings
1 star 2 stars 3 stars 4 stars 5 stars
comments

Away Tab

Whind of change
Away

#’s in parentheses are to be harmonics 
ex. (12)

INTRO
E ------------------|---------------(12)-----------------|
B -------------10---|-------10---10------10--------10----|
A --------0-------0-|-----0----0------------0----0----0--|
E -----11---11------|--11---------------------11---------|
B --12--------------|------------------------------------|
F#------------------|------------------------------------|

E --------------|-----------(7)-------------------|
B ----------5---|------5---5----5------------5----| 
A ------0-----0-|----0---0--------0--------0---0--|
E ----6---6-----|--6----------------6----6--------|
B --7-----------|----------------------7----------|
F#--------------|---------------------------------|

E -----------------------------------|
B ----------5-----3-----0-----0------| 
A ------0-----0-----0-----0-----0----|
E ----4---4-----4-----4-----4-----4--| 
B --5--------------------------------| 
F#-----------------------------------| 

VERSE
E --5-5------5-0-0-------0--0-0--|
B --5-5-----5--5-5------0---0-0--|
A --0-0----0---0-0-----0----0-0--|
E --0-0---0----0-0----0-----0-0--|
B -------4-------4---4------4-4--|
F#------5--------5--5-------0-0--|

1.  The clouds roll life away
Only you take my breath with you
2.  The earth spins the days away
Only you take the pain with you

E ----------------------------(7)--|
B --3--5--3--0-------5--3-3--5-----|
A --0--0--0--0-------6--4-0--0-----|
E --4--4--4--4--6/7--7--5-4--6-----|
B --5--5--5--5--6/7--7--5-5--7-----|
F#---------------------------------|

1.  Away, from the words I try to speak
Away, from time I’m soon to seek
2.  Away, from my open wounds
Away, from time that’s never to soon

E ---------------------------------------------------|
B --5-5-3------------5-----3-----0-----0------5-5-3--|
A --0-0-0--------0-----0-----0-----0-----0----0-0-0--|
E --6-6-4------4---4-----4-----4-----4-----4--6-6-4--|
B --7-7-5----5--------------------------------7-7-5--|
F#---------------------------------------------------|
[ Tab from: http://www.guitartabs.cc/tabs/w/whind_of_change/away_tab.html ]
CHORUS
E ----------------------|--------------|
B --10--5----3—-5--3--0-|--3--5--3--0--|
A ---0--0----0--0--0--0-|--0--0--0--0--|
E --11--6----4--4--4--4-|--4--4--4--4--|
B --12--7----5--5--5--5-|--5--5--5--5--|
F#----------------------|--------------|

Away, above all who still walk on this earth
Away, not to see them crawl on there knees
Away, to the sky just to feel your rebirth
Away, comes the wind, you’re never at ease

You just blow me away, away


 
VERSE II
E --5-5------5-0-0-------0--0-0--|
B --5-5-----5--5-5------0---0-0--|
A --0-0----0---0-0-----0----0-0--|
E --0-0---0----0-0----0-----0-0--|
B -------4-------4---4------4-4--|
F#------5--------5--5-------0-0--|

3.  Stars light the night away
Only you take the ache with you

E ----------------------------(7)--|
B --3--5--3--0-------5--3-3--5-----|
A --0--0--0--0-------6--4-0--0-----|
E --4--4--4--4--6/7--7--5-4--6-----|
B --5--5--5--5--6/7--7--5-5--7-----|
F#---------------------------------|

3.  Away from the throbbing abrasion
Away from time I find myself…waiting

CHORUS
E ----------------------|--------------|
B --10--5----3—-5--3--0-|--3--5--3--0--|
A ---0--0----0--0--0--0-|--0--0--0--0--|
E --11--6----4--4--4--4-|--4--4--4--4--|
B --12--7----5--5--5--5-|--5--5--5--5--|
F#----------------------|--------------|

Away, above all who still walk on this earth
Away, not to see them crawl on there knees
Away, to the sky just to feel your rebirth
Away, comes the wind, you’re never at ease

You just blow me away, away

OUTRO
E ------------------|---------------(12)-----------------|
B -------------10---|-------10---10------10--------10----|
A --------0-------0-|-----0----0------------0----0----0--|
E -----11---11------|--11---------------------11---------|
B --12--------------|------------------------------------|
F#------------------|------------------------------------|

E --------------|-----------(7)-------------------|
B ----------5---|------5---5----5------------5----| 
A ------0-----0-|----0---0--------0--------0---0--|
E ----6---6-----|--6----------------6----6--------|
B --7-----------|----------------------7----------|
F#--------------|---------------------------------|

E -----------------------------------3--|
B ----------5-----3-----0-----0------3--| 
A ------0-----0-----0-----0-----0----0--|
E ----4---4-----4-----4-----4-----4--0--| 
B --5--------------------------------2--| 
F#-----------------------------------3--|
Comments