Whigfield - Close To You Chords & Tabs

 

Close To You Chords & Tabs

Whigfield Chords & Tabs

Version: 1 Type: Tab 0 ratings
1 star 2 stars 3 stars 4 stars 5 stars
comments

Close To You Tab

   
close to you by whigfield,www.ultimate-guitar.com


artist:whigfield
song title:closeto you
tabbed by:Jan2 Moreno Seron St.Kab.City Neg.Occ.


Intro:

  D              F#m             G               A
e-------0---2-----------0---2-----------0---2-----0---|
B-----3---3---3-------2---2---2-------3---3---3---2---|
G---2-----------2---2-----------2---0----------0--2---|
D-0-----------------------------------------------2---|
A-------------------------------------------------0---|
E-----------------2---------------3-------------------|
[ Tab from: http://www.guitartabs.cc/tabs/w/whigfield/close_to_you_tab.html ]
     D              F#m              G                A
e---0-2-----0---2-----------0---2------------0---2-----0---|
B-3-----3-----3---3-------2---2---2--------3---3---3---2---|
G---------2---------2---2-----------2----0-----------0-2---|
D-----0------------------------------------------------2---|
A------------------------------------------------------0---|
E---------------------2---------------3--------------------|  pause:



solo:
e----------7--------------------------------------|
B-3--5--77---10-10-10---8-7-8---10---8-7-8---10---|
G-------------------------------------------------|
D-------------------------------------------------|
A-------------------------------------------------|
E-------------------------------------------------|


e--------7------------------------------------|
B-7---77---10-10-10----8-7-8---10----8-7-8----|
G---------------------------------------------|
D---------------------------------------------|
A---------------------------------------------|
E---------------------------------------------|
Comments