Wheatus - Teenage Dirtbag Chords & Tabs

 

Teenage Dirtbag Chords & Tabs

Wheatus Chords & Tabs

Version: 2 Type: Tab 2 ratings
1 star 2 stars 3 stars 4 stars 5 stars
comments

Teenage Dirtbag Tab

#----------------------------------PLEASE NOTE--------------------------------#
#This file is the author's own work and represents their interpretation of the#
#song. You may only use this file for private study, scholarship, or research.#
#-----------------------------------------------------------------------------#
#-- File created with Instab - http://www.pconline.com/~smcarey/instab.html --#
#-----------------------------------------------------------------------------#

Author/Artist: Wheatus
Title: Teenage Dirtbag
Album: Loser soundtrack
Transcribed by: Jim Fakonas
Email: ezgrlsrock@hotmail.com

If this isn't exactly how Wheatus plays it than it's extremely close. Email me with suggestions/corrections.
[ Tab from: http://www.guitartabs.cc/tabs/w/wheatus/teenage_dirtbag_tab_ver_2.html ]
Intro/Verse			   		    Pre-Chorus
-0--0-0----0---------0--0-0----0--0-0-|-0---------0--0-0----0---------0-------
----0-0-----------------0-0-------2-2-|--------------2-2----------------------
----1-1-------4-4-------1-1-------2-2-|----6-6-------2-2-------4-4-------4-4--
----2-2-------4-4-------2-2-------2-2-|----6-6-------2-2-------4-4-------4-4--
----2-2-------2-2-------2-2-------0-0-|----4-4-------0-0-------2-2-------2-2--
----0-0-----------------0-0-----------|---------------------------------------
 Her name is Noel...			    But she doesn't know who I am...
                                                                              
Chorus					 After Chorus
-------------------------|---------|-0-0-00--0-00-0-|-------------------------
-------------------------|---------|-0-0-00--2-22-2-|-------------------------
------2-2--4-4-----------|---------|-1-1-11--2-22-2-|-------------------------
-2-2--2-2--4-4-----6-----|---4---6-|-2-2-22--2-22-2-|---6-------4---6---------
-2-2--0-0--2-2---7---4-6-|-7---6---|-2-2-22--0-00-0-|-7---4-6-7---6-----------
-0-0---------------------|---------|-0-0-00---------|-------------------------
 Cuz I'm just a teenage...           Oh yeah...       She doesn't know...                                                   

Bridge					  Ending
--------------------------|---------|--------------0--------------------------
--------------------------|---------|--------------0--------------------------
--------------------------|---------|--------------1--------------------------
------2222-4444-----4-----|---4---6-|-7--6--4-6-4--2--------------------------
-2222-0000-2222---7---4-6-|-7---6---|-7--6--4-6-4--2--------------------------
-0000---------------------|---------|-5--4--2/4-2--0--------------------------
 I've got two tickets...                                                                            
Comments