Wheatus - Teenage Dirtbag Chords & Tabs

 

Teenage Dirtbag Chords & Tabs

Wheatus Chords & Tabs

Version: 1 Type: Chords 0 ratings
1 star 2 stars 3 stars 4 stars 5 stars
comments

Teenage Dirtbag Chords

   
Hi peeps, this is my first song, so forgive me if any of it is wrong!

Ok, here goes, this is the intro/verse tab (played clean)

e-----0-------0-------0-------0
a------------------------------  Repeat this riff x5
d------------------------------
g------------------------------
b------------------------------
e-----0-------7-------0-------5

then:
 for the part where it goes "she doesnt know who i am", do this:

e-----0-------0-------0-------0
a----------------------------- Repeat this once.
d-----------------------------
g-----------------------------
b-----------------------------
e-----9-------5-------7-------7

For the chorus, the chords are simply

E, A (E barre 5th fret), B (E barre 7th fret), followed by A riff:
[ Tab from: http://www.guitartabs.cc/tabs/w/wheatus/teenage_dirtbag_crd.html ]
e------------------------------
a------------------------------
d------------------------------  Then return back to an open E chord
g------------------------------
b-------------11--------------6
e-----9---------------4--------

The part where "OH YEAH, DIRTBAG" is sung in a very high voice goes like this

Chords are simply: Open E chord, A (E barre 5th fret)

Followed by a riff of

e--------------------------------------------------------------
a--------------------------------------------------------------
d-------------------------------------------------------------- Then return to open E (this riff
g-------------------------------------------------------------- is also used at the end of the chorus 
b-------------11--------------6---------------7---------------9 after "no she doesn't know what she's missin"
e-----9---------------4---------------5---------------7--------

For the ending,

Chords simply: E, B, E, A, E, B, E 

then for quality finish to song:

chords:
A, G#, F#, then slide back up to G# and back down to F#, E

Thats basically it!

Enjoy!
Comments