Wheatus - Teenage Dirtbag Chords & Tabs

 

Teenage Dirtbag Chords & Tabs

Wheatus Chords & Tabs

Version: 1 Type: Bass Tab 0 ratings
1 star 2 stars 3 stars 4 stars 5 stars
comments

Teenage Dirtbag Bass Tab

teenage dirtbag
By: wheatus
Tabbed by Nick Muccelli

Intro And Verse 1.(play 5x)

G--------------------------------------------------------------
D--------------------------------------------------------------
A----------------22------------00------------------------------
E---7\----00------------00-------------------------------------

Pre Chourus(2x)
G---------------------------------------------------------------
D---------------------------------------------------------------
A------4-4---------0-0--------2-2---------2-2-------------------
E---------------------------------------------------------------
[ Tab from: http://www.guitartabs.cc/tabs/w/wheatus/teenage_dirtbag_btab.html ]
Chourus Part 1(play 3x)
G--------------------------------------------------------------
D---------------------------------6----------------------------
A----------------0-0----2-2----4--------6----------------------
E----------0-0----------------------4--------------------------

Chourus Part 2(1x)
G--------------------------------------------------------------
D---------------------------------6-----------2-----4----------
A----------------0-0----2-2----4--------6---0----2-------------
E----------0-0-----------------------4-------------------------

Bridge
G--------------------------------------------------------------
D----------------------------------------6---------2-----4-----
A-------------------------------------4--------6-0----2--------
E------------------0-0---0-0---0-0-----------------------------

Thats it 
pretty easy, if you follow this you will be all good 
this is my frirst tab so go easy on it.


Comments