Wheatus - Punk Assed Bitch Chords & Tabs

 

Punk Assed Bitch Chords & Tabs

Wheatus Chords & Tabs

Version: 1 Type: Bass Tab 0 ratings
1 star 2 stars 3 stars 4 stars 5 stars
comments

Punk Assed Bitch Bass Tab

WHEATUS — PUNK ASSED BITCH (bass tab)
Tabbed by revo
 

Intro:
G -------------------------------
D -------------------------------
A --7--7--7--7--7--7--5–5----
E --------------------------------


[ Tab from: http://www.guitartabs.cc/tabs/w/wheatus/punk_assed_bitch_btab.html ]
Verse=Chorus:
G -------------------------------
D -------------------------------
A --7--7--7--7-----------------
E -----------------7--7--7--7-

G -------------------------------
D -------------------------------
A -------------------------------
E -9--9--9--9--5--5--5--5----
Comments